Tab Realm

TAB by Song : 503
A B C D E F G H I J K L M N O P Q R S T U V W X Y Z
Tab List Area
1 Pages 1 Results

´╗┐Am I Evil by Metallica 


                           Am I Evil



[Gtr 1 : Distorted]
 
        |   |   |   |     |   |   |   |    |   |     |   |
 
e||---||-----------------|----------------|---------------------|
B||-4-||-----------------|----------------|---------------------|
G||---||-9-----------7-9-|-10----------12-|-9---9-9-9-9---9-9-9-|
D||-4-||-9-----------7-9-|-10----------12-|-9---9-9-9-9---9-9-9-|
A||---||-7-----------5-7-|-8-----------10-|-7---7-7-7-7---7-7-7-|
E||---||-----------------|----------------|---------------------|
 
   |   |     |     |       |   |     |   |       |   |     |     |
 
e|-----------------------|---------------------|-----------------------|
B|-----------------------|---------------------|-----------------------|
G|-9---9-9-9-7-7-7-7-7-7-|-9---9-9-9-9---9-9-9-|-9---9-9-9-7-7-7-7-7-7-|
D|-9---9-9-9-7-7-7-7-7-7-|-9---9-9-9-9---9-9-9-|-9---9-9-9-7-7-7-7-7-7-|
A|-7---7-7-7-5-5-5-5-5-5-|-7---7-7-7-7---7-7-7-|-7---7-7-7-5-5-5-5-5-5-|
E|-----------------------|---------------------|-----------------------|
                                               |
                                               |
                                               | Gtr 2 : Distorted
                                               | ( Trem Strum )
                                               |-----------------------|
                                               |-----------------------|
                                               |-----------------------|
                                               |-14-\------------------|
                                               |-14-\------------------|
                                               |-12-\------------------|
 
 
[Gtr 1 doubles Gtr 2]
 
  |   |     |   |       |   |     |     |       |   |     |   |
 
e|---------------------|-----------------------|---------------------|
B|---------------------|-----------------------|---------------------|
G|*--------------------|-----------------------|---------------------|
D|-2-------------------|-----------9-9-9-9-9-9-|-8-------------------|
A|*2-------------------|-----------9-9-9-9-9-9-|-8-------------------|
E|-0-------------------|-----------7-7-7-7-7-7-|-6-------------------|
 
  |   |     |     |       |   |     |   |       |   |     |     |
 
e|-----------------------|---------------------|-----------------------|
B|-----------------------|---------------------|-----------------------|
G|----------------------*|---------------------|-----------------------|
D|-----------3-3-3-3-3-3-|-2-------------------|-----------9-9-9-9-9-9-|
A|-----------3-3-3-3-3-3*|-2-------------------|-----------9-9-9-9-9-9-|
E|-----------1-1-1-1-1-1-|-0-------------------|-----------7-7-7-7-7-7-|
 
  |   |     |   |       |   |     |        |          |   |     |   |
 
e|---------------------|-----------------------------|---------------------|
B|---------------------|-----------------------------|---------------------|
G|---------------------|-----------10-10-10-10-10-10-|-9-------------------|
D|-8-------------------|-----------10-10-10-10-10-10-|-9-------------------|
A|-8-------------------|-----------8--8--8--8--8--8--|-7-------------------|
E|-6-------------------|-----------------------------|---------------------
 
  |   |     |     |       |   |     |   |       |   |     |     |
 
e|-----------------------|---------------------|-----------------------|
B|-----------------------|---------------------|-----------------------|
G|-----------------------|---------------------|-----------------------|
D|-----------9-9-9-9-9-9-|-8-------------------|-----------3-3-3-3-3-3-|
A|-----------9-9-9-9-9-9-|-8-------------------|-----------3-3-3-3-3-3-|
E|-----------7-7-7-7-7-7-|-6-------------------|-----------1-1-1-1-1-1-|
 
  |   |     |   |       |   |     |     |       |    |     |   |
 
e|---------------------|-----------------------|----------------------|
B|---------------------|-----------------------|----------------------|
G|---------------------|-----------------------|*---------------------|
D|-2-------------------|-----------7-7-7-7-7-7-|-/9---9-9-9-9---9-9-9-|
A|-2-------------------|-----------5-5-5-5-5-5-|*/7---7-7-7-7---7-7-7-|
E|-0-------------------|-----------------------|----------------------|
 
 
[Gtr 1 : Grad rit.]
 
   |   |     |     |       |   |   |   |      |   |   |   |
        (Repeat 3 times)
                                   ~~             ~~      ~~
e|-----------------------|------------------|-------------------|
B|-----------------------|------------------|-------------------|
G|----------------------*|------------------|-------------10----|
D|-9---9-9-9-7-7-7-7-7-7-|------------------|-----9---8---------|
A|-7---7-7-7-5-5-5-5-5-5*|-------------8----|-7-----------------|
E|-----------------------|-0---7---6--------|-------------------|
 
   ~~
e|------------------------------------|
B|------------------------------------|
G|-9---10---/12---/14-----/16---------|
D|------------------------------------|
A|------------------------------------|
E|------------------------------------|
 
 
[Gtr 2 : Intro solo] (See comments at end)
 
    HH  HH  HH  HH  HH  HH  HH  HH    HH  HH  HH  HH  HH  HH  HH  HH
e|---------------------------------|---------------------------------|
B|-058-058-058-058-058-058-058-058-|-047-047-047-047-047-047-047-047-|
G|---------------------------------|---------------------------------|
D|---------------------------------|---------------------------------|
A|---------------------------------|---------------------------------|
E|---------------------------------|---------------------------------|
 
                                                        (Hold last note..)
    HH  HH  HH  HH  HH   HH   HH  HH    HH  HH  HH  HH  HH  HH  HH
e|-----------------------------------|---------------------------------|
B|-058-058-058-058-0710-0710-058-058-|-047-047-047-047-047-047-047-----|
G|-----------------------------------|---------------------------------|
D|-----------------------------------|---------------------------------|
A|-----------------------------------|---------------------------------|
E|-----------------------------------|---------------------------------|
 
   A   A   A   A   A   A Wh~~~~~~
e|-------------------------------|
B|-------------------------------|
G|-------------------------------|
D|-----5-------------------------|
A|-5-----------5-------7---------|
E|---------5-------7-------------|
 
 
 
"One, Two"              (Repeat Main Riff 8 times before verse)
 
                      PM---|  PM-|  PM---|
 
                    |   |   |  |    |   |   |  |
[Main Riff]       |------------------------------|
                  |------------------------------|
                  |*----------------------------*|
                  |---------------2---------3--2-|
                  |*2-2-2-2-5-2-2-0-2-2-2---1--0*|
                  |-0-0-0-0-3-0-0---0-0-0--------|      
 
(Main Riff with verse 1)
 
 
[Verse 1] (Lyrics)
 
                My mother was a witch, she was burned alive.
                Thankless little bitch, for the tears i've cried.
                Take her down now, don't want to see her face.
                All blistered and burned, can't hide my disgrace.
 
 
                      PM---|  PM-|  PM---|
 
                    |   |   |  |    |   |   |  |
[Pre-Chorus riff] |------------------------------|
                  |------------------------------|
                  |*----------------------------*|
                  |---------7-----9---------10-9-|
                  |*7-7-7-7-5-7-7-7-7-7-7---8--7*|
                  |-5-5-5-5---5-5---5-5-5--------|
 
 
[Pre-Chorus riff x 4 with Pre-Chorus]
 
 
[Pre-Chorus] (Lyrics)
 
                Twenty-seven, every one is nice,
                Gotta see 'em, make 'em pay the price,
                See the bodies out on the ice,
                Take my time.......
 
 
[Main Riff x 4 with Chorus]
 
[Chorus] (Lyrics)
 
                Am I Evil?
                Yes I am,
                Am I Evil?
                I am that, yes I am....
 
 
[Main Riff x 2]
 
[Main Riff x 8 with verse 2
 
 
[Verse 2] (Lyrics)
 
                As i watched my mother die, I lost my head,
                Revenge now I sought, to break with my bread,
                Taking no chances, you come with me,
                I split you to the bone, help set you free.
 
 
[Pre-chorus riff x 4 with pre-chorus]
 
[Main Riff x 4 with chorus]
 
 
 
[Bridge]
 
e|------------------|------------------------------|
B|------------------|------------------------------|
G|*9-----7-----5---*|------------------------------|
D|-9-----7-----5----|---------------2---------3--2-|
A|*7-----5-----3---*|-2-2-2-2-5-2-2-0-2-2-2---1--0*|
E|------------------|-0-0-0-0-3-0-0---0-0-0--------|
 
               (Repeat 3 times)
 
        . |   |   |   |      |   |     |  |       |   |   |   |
                                                    ~~~~~~~~~~~
        |------------------|--------------------|------------------|
        |------------------|--------------------|------------------|
        |*9-----7-----5---*|-9-----11-----12----|------------------|
        |-9-----7-----5----|-9-----11-----12----|------------------|
        |*7-----5-----3---*|-7-----9------10----|--/7--------------|
        |------------------|--------------------|------------------|
 
 
[Double Time feel]
 
                                      _______________________________________
[Fast Riff 1]                         |1.
 
   |   |   |   |      |   |   |   |      |   |   |   |      |   |   |   |
 
      PM-|    PM-|       PM-|               PM-|    PM--|      PM-|
e|------------------|------------------|------------------|------------------|
B|------------------|------------------|------------------|------------------|
G|*-----------------|------------------|------------------|-----------------*|
D|------------------|-------------7----|------------------|---------5--------|
A|*7--7777-7--7777--|-7--7777-5---5----|-7--7777-7--7777--|-7--7777-3---5---*|
E|-5--5555-5--5555--|-5--5555-3--------|-5--5555-5--5555--|-5--5555-----3----|
 
 
_____________________________________
|2.                                     Fast Riff 2 : (Note : Lyrics)
 
   |   |   |   |      |   |   |   |      |   |   |   |     |   |   |   |
 
      PM-|    PM--|                     PM------------------------|
e|------------------|-----------------||-----------------|-----------------|
B|------------------|-----------------||-----------------|-----------------|
G|------------------|-----------------||*----------------|-----------------|
D|------------------|-----------------||-----------------|------------7----|
A|-7--7777-7--7777--|-----------------||*2--2222-2-2222--|-2--2222-2--5----|
E|-5--5555-5--5555--|-555-555-555-532-||-0--0000-0-0000--|-0--0000-0-------|
                   |   Triplets      |
 
  |   |   |   |     |   |   |   |
 
  PM-------------------------|
|-----------------|-----------------|
|-----------------|-----------------|
|-----------------|----------------*|    Repeat whole sequence again.
|-----------------|------------7-7--|
|-2--2222-2-2222--|-2--2222-2--5-5-*|
|-0--0000-0-0000--|-0--0000-0-------|
 
 
 
[With Fast Riff 2] [First repeat]
 
[With Fast Riff 2] [Second repeat])
 
 
[Then Fast Riff 1 x 1]
 
  |   |   |   |      |   |   |   |      |   |   |   |
 
e|------------------|------------------|------------------|
B|------------------|------------------|------------------|
G|------------------|------------------|------------------|
D|-2----------------|------------------|-5-------7--------|
A|-2----------------|------------------|-5-------7--------|
E|-0----------------|------------------|-3-------5--------|
 
 
[GUITAR SOLO]
 
 
For the solo, the rhythm follows the following 'feel':
 
          X       X         X       X
        |-X--XXXX-X-XXXX--|-X--XXXX-X-XXXX--|
 
        Chord changes are noted above tab lines, and are 2 or 3 fingered power
chords, depending on what you feel like. For the 'XX' notes, strike the
full chord, on the others just play the lowest note (Usually the E string)
 
  B5
 
   |  |||| |  | |||    |    | ||| |   | || |
   @  @@@@ @  @ @@@    @    @ @@@ @   @ @@ @
       (Full)    P
e|-----------7-------|----------------11-12--|
B|------------10-7-7/|/12-----------12-------|
G|-9^^^^^^^^^--------|-----------------------|
D|-------------------|-----------------------|
A|-------------------|-----------------------|
E|-------------------|-----------------------|
 
   |       |  |  |  |     |     |  |  |  |    |    |||| |   ||||
   @       @  @  @  @     @     @  @  @  @    @    @@@@ @   @@@@
     H  P       H  H        P  P     P  P
e|-11-12-11---11-12-14-14-14-12-11-12-11----|-----------------7---|
B|---------12----------------------------12-|-10---------/7-------|
G|------------------------------------------|---------------------|
D|------------------------------------------|---------------------|
A|------------------------------------------|---------------------|
E|------------------------------------------|---------------------|
 
   |  ||||  |     |   | |  |     |    | || | |     ||||
   @  @@@@  @     @   @ @  @     @    @ @@ @ @     @@@@
             H P                   P       P   P
e|-10-9--7--7-9-7-----7--------|--------------------------|
B|----------------10----10-7---|-10-7---7-----------------|
G|-----------------------------|------9---9-7-9-7---7---7-|
D|-----------------------------|------------------9-------|
A|-----------------------------|--------------------------|
E|-----------------------------|--------------------------|
 
   |    ||  | | |    | | | |     |    ||  | | |    | | | |
   @    @@  @ @ @    @ @ @ @     @    @@  @ @ @    @ @ @ @
  (Full)                        (Full)
e|-----7-----------------------|-----7-----------------------|
B|-----7-10-7---7--------------|-----7-10-7---7--------------|
G|-9^^--------9---9-7-7------7-|-9^^--------9---9-7-7------7-|
D|-----------------------------|-----------------------------|
A|-----------------------------|-----------------------------|
E|-----------------------------|-----------------------------|
 
   |    ||  | | |    | | | |      |      | | | |   |   | | | |
   @    @@  @ @ @    @ @ @ @      @      @ @ @ @   @   @ @ @ @
  (Full)
e|-----7-----------------------|-/19--/20---/22---/24----------|
B|-----7-10-7---7--------------|-------------------------------|
G|-9^^--------9---9-7-7------7-|-------------------------------|
D|-----------------------------|-------------------------------|
A|-----------------------------|-------------------------------|
E|-----------------------------|-------------------------------|
 
   E5
   |      | |  |  |  |      | |  |  |    |      | |  |  |  |      | |  |  |
   @      @ @  @  @  @      @ @  @  @    @      @ @  @  @  @      @ @  @  @
     P  P              P  P                P  P              P  P
e|-15-14-12----12-14-15-14-12----12-14-|-15-14-12----12-14-15-14-12----12-14-|
B|----------15----------------15-------|----------15----------------15-------|
G|-------------------------------------|-------------------------------------|
D|-------------------------------------|-------------------------------------|
A|-------------------------------------|-------------------------------------|
E|-------------------------------------|-------------------------------------|
 
  |     | | | |  |     | | | |     |     | | | |  |     | | | |
  @     @ @ @ @  @     @ @ @ @     @     @ @ @ @  @     @ @ @ @
 
e|-15---14---12--------12---------|--------------------------------|
B|----------------15--------15----|-14---12---14-------------------|
G|--------------------------------|----------------12======--------|
D|--------------------------------|--------------------------------|
A|--------------------------------|--------------------------------|
E|--------------------------------|--------------------------------|
 
   B5
   |  | | | | |   | | | |    |    | | | |  |   | | | |
   @  @ @ @ @ @   @ @ @ @    @    @ @ @ @  @   @ @ @ @
  (Full) P     P      P        P      P     P     P
e|------7-0-0-9-0-0-10-0-0-|-12-0-0-10-0-0-9-0-0-7-0-0-|
B|----7--------------------|---------------------------|
G|-9^----------------------|---------------------------|
D|-------------------------|---------------------------|
A|-------------------------|---------------------------|
E|-------------------------|---------------------------|
 
  |    | | | | |   | | | |      |   | | | | |   | | | |
  @    @ @ @ @ @   @ @ @ @      @   @ @ @ @ @   @ @ @ @
 
e|-10---9---7--------7---------|----------------------------|
B|--------------10-------10----|-9---7---9------------------|
G|-----------------------------|-------------7======\-------|
D|-----------------------------|----------------------------|
A|-----------------------------|----------------------------|
E|-----------------------------|----------------------------|
 
 
   |  |||| |  ||||   |  |||| |  ||||   |  |||| |  ||||   |  |||| |  ||||
   @  @@@@ @  @@@@   @  @@@@ @  @@@@   @  @@@@ @  @@@@   @  @@@@ @  @@@@
    HH  HH  HH  HH    HH  HH  HH  HH    HH  HH  HH  HH    HH  HH  HH  HH
e|-----------------|-----------------|-----------------|-047-047-047-047-|
B|-047-047-047-047-|-058-058-058-058-|-047-047-047-047-|-----------------|
G|-----------------|-----------------|-----------------|-----------------|
D|-----------------|-----------------|-----------------|-----------------|
A|-----------------|-----------------|-----------------|-----------------|
E|-----------------|-----------------|-----------------|-----------------|
 
                                       A5
   |  |||| |  ||||   |  |||| |  ||||   |   ||||  |   ||||
   @  @@@@ @  @@@@   @  @@@@ @  @@@@   @   @@@@  @   @@@@
    HH  HH  HH  HH    HH  HH  HH  HH   T PP T PP T PP T PP
e|-058-058-058-058-|-047-047-047-047-|-1285-1285-1285-1285-|
B|-----------------|-----------------|---------------------|
G|-----------------|-----------------|*-------------------*|
D|-----------------|-----------------|---------------------|
A|-----------------|-----------------|*-------------------*|
E|-----------------|-----------------|---------------------|
 
   F5                    A#5                   F#5
   |   ||||  |   ||||    |   ||||  |   ||||    |   ||||  |   ||||
   @   @@@@  @   @@@@    @   @@@@  @   @@@@    @   @@@@  @   @@@@
   T PP T PP T PP T PP   T PP T PP T PP T PP   T PP T PP T PP T PP
e|-1385-1385-1385-1385-|-1396-1396-1396-1396-|-1496-1496-1496-1496-|
B|---------------------|---------------------|---------------------|
G|*-------------------*|*-------------------*|---------------------|
D|---------------------|---------------------|---------------------|
A|*-------------------*|*-------------------*|---------------------|
E|---------------------|---------------------|---------------------|
 
   B5
   |    || | | |    || | |   |  |||| |  ||||   |  |||| |  ||||
   @    @@ @ @ @    @@ @ @   @  @@@@ @  @@@@   @  @@@@ @  @@@@
   T P P T P P T P P T P P    HH  HH  HH  HH    HH  HH  HH  HH
e|-14107-14107-14107-14107-|-047-----047-----|-047-----047-----|
B|-------------------------|-----047-----047-|-----047-----047-|
G|*-----------------------*|-----------------|-----------------|
D|-------------------------|-----------------|-----------------|
A|*-----------------------*|-----------------|-----------------|
E|-------------------------|-----------------|-----------------|
 
   |  |||| |  ||||   |  |||| |  ||||   |  |||| |  ||||   |  |||| |  ||||
   @  @@@@ @  @@@@   @  @@@@ @  @@@@   @  @@@@ @  @@@@   @  @@@@ @  @@@@
    HH  HH  HH  HH    HH  HH  HH  HH    HH  HH  HH  HH    HH  HH  HH  HH
e|-----------------|-----------------|-----------------|-----------------|
B|-047-----047-----|-047-----047-----|-----------------|-----------------|
G|-----047-----047-|-----047-----047-|-047-----047-----|-047-----047-----|
D|-----------------|-----------------|-----047-----047-|-----047-----047-|
A|-----------------|-----------------|-----------------|-----------------|
E|-----------------|-----------------|-----------------|-----------------|
 
                                         E5
   |  |||| |  ||||   |  |||| |  ||||     |      | | |  |   |      | | |  |
   @  @@@@ @  @@@@   @  @@@@ @  @@@@     @      @ @ @  @   @      @ @ @  @
    HH  HH  HH  HH                         P  P     P  P     P  P     P  P
e|-----------------|-------------------|-------------------------------------|
B|-----------------|----------------12-|-1514-0-0-1715-0-0-1514-0-0-1715-0-0-|
G|-----------------|-------------/14---|-------------------------------------|
D|-047-----047-----|-------------------|-------------------------------------|
A|-----047-----047-|-------------------|-------------------------------------|
E|-----------------|-7\----------------|-------------------------------------|
 
   |      | | |  |   |      | | |  |     |        |  | | |    |    ||| |
   @      @ @ @  @   @      @ @ @  @     @        @  @ @ @    @    @@@ @
     P  P    P  P    P  P    P  P
e|-------------------------------------|---------------------------------|
B|-1514-0-0-1715-0-0-1514-0-0-1715-0-0-|-1514-0-1412-0-1210-0-109-0-97-0-|
G|-------------------------------------|---------------------------------|
D|-------------------------------------|---------------------------------|
A|-------------------------------------|---------------------------------|
E|-------------------------------------|---------------------------------|
                       B5
   |  ||||  |  ||||    |   |||| |    || ||    |    |||| |  ||||
   @  @@@@  @  @@@@    @   @@@@ @    @@ @@    @    @@@@ @  @@@@
                      (Full)      P                     (Full)
e|-------------------|----------------------|------------10^====|
B|-7-----------------|-10^------107---7-----|-------------------|
G|-7-9-7---7---------|--------------9---9-7-|-9-7---7-----------|
D|-------------------|----------------------|-----9-------------|
A|-------------------|----------------------|-------------------|
E|-------------------|----------------------|-------------------|
 
   |   || || |       || | |    |    || | |  |  | | | |       (END SOLO)
   @   @@ @@ @       @@ @ @    @    @@ @ @  @  @ @ @ @
               H  P    H  P     H P   H P    ~~~~~~~~
e|-9----12-------------------|--------------------------|
B|-----------10-12-10-8-10-8-|-7-8-7-5-6-5--3========---|
G|---------------------------|--------------------------|
D|---------------------------|--------------------------|
A|---------------------------|--------------------------|
E|---------------------------|--------------------------|
 
 
[Fast Riff 1 x 2]
 
( Note : Only repeat the first section )
 
On fourth repeat, Gtr 2 plays:
 
                P
e|------------------|
B|------------------|
G|------------------|
D|-/777-777-777-75--|
A|----------------7-|
E|------------------|
 
 
[Fast Riff 2 x 4]
 
[Fast Riff 1 x 4]
 
 
(Triplet feel - not strict time)
 
                              _________________________
                              |1,2,3.      |4.
                               H   H P
e|------------------|----------------------|----------|
B|------------------|----------------------|----------|
G|------------------|---------------------*|----------|
D|-----9---7-7------|-7-7------------------|-7--------|
A|-----7---5-5------|-5-5---------5-7-5---*|-5---7----|
E|-0-0--------------|---------5-7-------7--|-----5----|
 
     PM---|  PM-|  PM---|       h   h
               (Repeat 6 times)
e|----------------------------|-----------------|
B|----------------------------|-----------------|
G|*--------------------------*|-----------------|
D|---------------2--------3-2-|-------------2---|
A|*2-2-2-2-5-2-2-0-2-2-2--1-0*|---------5---2---|
E|-0-0-0-0-3-0-0---0-0-0------|-5---5---3---0---|       (END)
 
 
 
NOTES :
-------
 
        -   For the intro solo, use the left hand for all taps - The open
string is picked with the pick, then hammer on with your index finger,
then little finger for the highest note. This technique is also used in
the main solo as well.
 
        -   For the tapping part on the main solo, i find it easier to
use my middle finger rather than the pick edge (Since it is not too
fast)
  


My mother was a witch,
she was burned alive
Thankless little bitch,
for the tears I cried
Take her down now,
dont want to see her face
All blistered and burnt,
cant hide my disgrace

Twenty-seven,
everyone was nice
Gotta see em make em pay the price
See their bodies out on the ice
Take my time

Am I evil?
yes, I am
Am I evil?
I am man,
yes, I am

As I watched my mother die,
I lost my head
Revenge now I sought,
to break with my bread
Taking no chances,
you come with me
Ill split you to the bone,
help set you free

Twenty-seven,
everyone was nice
Gotta see em,
make em pay the price
See their bodies out on the ice
Take my time

Am I evil?
yes, I am
Am I evil?
I am man,
yes, I am,

On with the action now,
Ill strip your pride
Ill spread your blood around,
Ill see you ride
Your face is scarred with steel, wounds deep and neat
Like a double dozen before ya,
smells so sweet

Am I evil?
yes, I am
Am I evil?
I am man

Ill make my residence,
Ill watch your fire
You can come with me,
sweet desire
My face is long forgot,
my face not my own
Sweet and timely whore,
take me home

Am I evil?
yes, I am
Am I evil?
I am man

My soul is longing for,
await my heir
Sent to avenge my mother,
sweep myself
My face is long forgot,
my face not my own
Sweet and timely whore,
take me home

Am I evil?
yes, I am
Am I evil?
I am man

Am I evil?
yes, I fucking am
Am I evil?
I am man, yeah




H - Hammer on
P  - Pick off
/  - Slide up to...
\  - Slide down to...
T  - Tap (With pick or finger)
h  - Harmonic (Natural)
A  - Harmonic (Artificial)
~  - Vibrato
X_ - Pick slide
PM - Palm mute
Tr - Trill
Wh - Use whammy bar
^  - Bend string up ( x steps )
`  - Release bend ( x steps )
 
|
@  - Rhythm slash ( Power chord noted)
 
|  - Time slash ( 4\4 Time, etc... )
=  - Let ring





------------------

version 2 



 4/4
  Gtr I
                             PM--|     PM--|
                             |-3-|     |-3-|
  H    E E    H     Q    E E E E E E E E E E
|----------|-----------|---------------------|
|----------|-----------|---------------------|
|-9----7-9-|-10----12--|---------------------|
|-9----7-9-|--8----12--|-9---------9---------|
|-7----5-7-|--8----10--|-7---------7---------|
|-0--------|-----------|-----0-0-0-----0-0-0-|
 
 
  Gtr I
      PM--------------|       PM--|     PM--|       PM--------------|
      |-3-| |-3-| |-3-|       |-3-|     |-3-|       |-3-| |-3-| |-3-|
  E E E E E E E E E E E   E E E E E E E E E E   E E E E E E E E E E E
|-----------------------|---------------------|-----------------------|
|-----------------------|---------------------|-----------------------|
|-----------------------|---------------------|-----------------------|
|-9---------------------|-9---------9---------|-9---------------------|
|-7---------------------|-7---------7---------|-7---------------------|
|-----0-0-0-0-0-0-0-0-0-|-----0-0-0-----0-0-0-|-----0-0-0-0-0-0-0-0-0-|
|
|
| Gtr II
| W                       W                     W (slow slide)
|-----------------------|---------------------|-----------------------|
|-----------------------|---------------------|-----------------------|
|-----------------------|---------------------|-----------------------|
|-----------------------|---------------------|-----------------------|
|-----------------------|---------------------|-12\-------------------|
|-----------------------|---------------------|-14\-------------------|
 
 
    Gtr I
        PM--|     PM--|       PM--------------|       PM--|     PM--|
        |-3-|     |-3-|       |-3-| |-3-| |-3-|       |-3-|     |-3-|
    E E E E E E E E E E   E E E E E E E E E E E   E E E E E E E E E E
||----------------------|-----------------------|---------------------|
||o---------------------|-----------------------|---------------------|
||----------------------|-----------------------|---------------------|
||--9---------9---------|-9---------------------|-9---------9---------|
||o-7---------7---------|-7---------------------|-7---------7---------|
||------0-0-0-----0-0-0-|-----0-0-0-0-0-0-0-0-0-|-----0-0-0-----0-0-0-|
|
|
|   Gtr II
|   W                     +H     H                W
||----------------------|-----------------------|---------------------|
||o---------------------|-----------------------|---------------------|
||----------------------|-----------------------|---------------------|
||----------------------|--------9--------------|-8-------------------|
||o-2-------------------|-(2)----9--------------|-8-------------------|
||--0-------------------|-(0)----7--------------|-6-------------------|
 
 
  Gtr I
      PM--------------|         PM--|     PM--|       PM--|
      |-3-| |-3-| |-3-|         |-3-|     |-3-|       |-3-| |-3-| |-3-|
  E E E E E E E E E E E  4x E E E E E E E E E E   E E E E E E E E E E E
|------------------------||---------------------|-----------------------|
|-----------------------o||---------------------|-----------------------|
|------------------------||---------------------|-----------7-7-7-7-7-7-|
|-9----------------------||-9---------9---------|-9---------7-7-7-7-7-7-|
|-7---------------------o||-7---------7---------|-7---------5-5-5-5-5-5-|
|-----0-0-0-0-0-0-0-0-0--||-----0-0-0-----0-0-0-|-----0-0-0-------------|
|
|
| Gtr II
|                                                           |-3-| |-3-|
|  H     H               4x W                     +H        E E E E E E
|------------------------||---------------------|-----------------------|
|-----------------------o||---------------------|-----------------------|
|------------------------||---------------------|-----------7-7-7-7-7-7-|
|-(8)--------------------||---------------------|-----------7-7-7-7-7-7-|
|-(8)----3--------------o||-2-------------------|-(2)-------5-5-5-5-5-5-|
|-(6)----1---------------||-0-------------------|-(0)-------------------|
 
 
    Gtrs I, II
        PM--|     PM--|       PM--|
        |-3-|     |-3-|       |-3-| |-3-| |-3-|
    E E E E E E E E E E   E E E E E E E E E E E  3x
||----------------------|------------------------||
||o---------------------|-----------------------o||
||----------------------|-----------7-7-7-7-7-7--||
||--9---------9---------|-9---------7-7-7-7-7-7--||
||o-7---------7---------|-7---------5-5-5-5-5-5-o||
||------0-0-0-----0-0-0-|-----0-0-0--------------||
 
 
  Gtrs I, II                      Gtr I
                                       ~~~      ~~
  Q Q Q Q   Q Q Q Q   Q Q a H     E a  Q.    a  H
|---------|---------|-----------|--------------------|
|---------|-------6-|-5-6-6S8---|---8S10----10S12----|
|---------|---4-3---|-----------|--------------------|
|-------3-|-2-------|-----------|--------------------|
|---2-1---|---------|-----------|--------------------|
|-0-------|---------|-----------|--------------------|
 
 
  Gtr I
  |-3-| |-3-| |-3-| |-3-|   |-3-| |-3-| |-3-| |-3-|
  E E E E E E E E E E E E   E E E E E E E E E E E E
|-------------------------|-------------------------|
|-0h5h8-0h5h8-0h5h8-0h5h8-|-0h5h8-0h5h8-0h5h8-0h5h8-|
|-------------------------|-------------------------|
|-------------------------|-------------------------|
|-------------------------|-------------------------|
|-------------------------|-------------------------|
 
 
  Gtr I
  |-3-| |-3-| |-3-| |-3-|   |-3-| |-3-| |-3-| |-3-|
  E E E E E E E E E E E E   E E E E E E E E E E E E
|-------------------------|-------------------------|
|-0h4h7-0h4h7-0h4h7-0h4h7-|-0h4h7-0h4h7-0h4h7-0h4h7-|
|-------------------------|-------------------------|
|-------------------------|-------------------------|
|-------------------------|-------------------------|
|-------------------------|-------------------------|
 
 
  Gtr I
  |-3-| |-3-| |-3-| |-3-|   |-3--| |-3--| |-3-| |-3-|
  E E E E E E E E E E E E   E E  E E E  E E E E E E E
|-------------------------|---------------------------|
|-0h5h8-0h5h8-0h5h8-0h5h8-|-0h7h10-0h7h10-0h5h8-0h5h8-|
|-------------------------|---------------------------|
|-------------------------|---------------------------|
|-------------------------|---------------------------|
|-------------------------|---------------------------|
 
 
  Gtr I
  |-3-| |-3-| |-3-| |-3-|   |-3-| |-3-| |-3-|
  E E E E E E E E E E E E   E E E E E E E E E +Q     +W
|-------------------------|------------------------|------------|
|-0h4h7-0h4h7-0h4h7-0h4h7-|-0h4h7-0h4h7-0h4h7-(7)--|-(7)--------|
|-------------------------|------------------------|------------|
|-------------------------|------------------------|------------|
|-------------------------|------------------------|------------|
|-------------------------|------------------------|------------|
 
 
                                                    2/4
  Gtr I
  H  Q   Q      H.     Q      H.     E     W          +H
|------------|-------------|------------|----------|----------|
|------------|-------------|------------|----------|----------|
|------------|----------|------------|----------|----------|
|---------|-------------|---------|----------|----------|
|------------|----------|------------|-------|-()----|
|------------|-------------|---------|----------|----------|
 
 
   4/4
    Gtrs I, II
    PM----|   PM|     PM--|
    E E E E E E E E   E E E E +Q   Q  8x
||------------------|-----------------||
||o-----------------|----------------o||
||------------------|-----------------||
||------------------|-----------------||
||o---------5-----7-|-------8-(8)--7-o||
||--0-0-0-0-3-0-0-5-|-0-0-0-6-(6)--5--||
 
 
    Gtrs I, II
    PM----|   PM|     PM--|
    E E E E E E E E   E E E E +Q   Q  8x
||------------------|-----------------||
||o-----------------|----------------o||
||------------------|-----------------||
||------------------|-----------------||
||o---------5-----7-|-------8-(8)--7-o||
||--0-0-0-0-3-0-0-5-|-0-0-0-6-(6)--5--||
 
 
    Gtrs I, II
    PM----|   PM|     PM--|
    E E E E E E E E   E E E  E  +Q   Q   4x
||------------------|--------------------||
||o-----------------|-------------------o||
||----------7-----9-|-------10-(10)--9---||
||----------7-----9-|-------10-(10)--9---||
||o-----------------|-------------------o||
||--7-7-7-7---7-7---|-7-7-7--------------||
 
 
    Gtrs I, II
    PM----|   PM|     PM--|
    E E E E E E E E   E E E E +Q   Q  6x
||------------------|-----------------||
||o-----------------|----------------o||
||------------------|-----------------||
||------------------|-----------------||
||o---------5-----7-|-------8-(8)--7-o||
||--0-0-0-0-3-0-0-5-|-0-0-0-6-(6)--5--||
 
 
    Gtrs I, II
    PM----|   PM|     PM--|
    E E E E E E E E   E E E E +Q   Q  8x
||------------------|-----------------||
||o-----------------|----------------o||
||------------------|-----------------||
||------------------|-----------------||
||o---------5-----7-|-------8-(8)--7-o||
||--0-0-0-0-3-0-0-5-|-0-0-0-6-(6)--5--||
 
 
    Gtrs I, II
    PM----|   PM|     PM--|
    E E E E E E E E   E E E  E  +Q   Q  4x
||------------------|-------------------||
||o-----------------|------------------o||
||----------7-----9-|-------10-(10)--9--||
||----------7-----9-|-------10-(10)--9--||
||o-----------------|------------------o||
||--7-7-7-7---7-7---|-7-7-7-------------||
 
 
    Gtrs I, II
    PM----|   PM|     PM--|
    E E E E E E E E   E E E E +Q   Q  4x
||------------------|-----------------||
||o-----------------|----------------o||
||------------------|-----------------||
||------------------|-----------------||
||o---------5-----7-|-------8-(8)--7-o||
||--0-0-0-0-3-0-0-5-|-0-0-0-6-(6)--5--||
 
 
  Gtrs I, II
                                PM----|   PM|     PM--|
  Q  E Q  E H      +W           E E E E E E E E   E E E E +Q   Q
|----------------|------------|-----------------|----------------|
|----------------|------------|-----------------|----------------|
|-9----7----5----|-(5)--------|-----------------|----------------|
|-9----5----5----|-(5)--------|-----------------|----------------|
|-7----5----3----|-(3)--------|---------5-----7-|-------8-(8)--7-|
|----------------|------------|-0-0-0-0-3-0-0-5-|-0-0-0-6-(6)--5-|
 
 
  Gtrs I, II
  Q  E Q  E H      +W        Q  E Q  E H      +E  S S H.
|----------------|-------||-----------------|-----------------||
|----------------|-------||o----------------|----------------o||
|-9----7----5----|-(5)---||--9----7----5----|-(5)-5-5-5-------||
|-9----5----5----|-(5)---||--9----5----5----|-(5)-5-5-5-------||
|-7----5----3----|-(3)---||o-7----5----3----|-(3)-3-3-3------o||
|----------------|-------||-----------------|-----------------||
 
 
  Gtrs I, II
  Q E Q  E H      +W                 +W            +W
|---------------|------------------|-------------|----------|
|---------------|------------------|-------------|----------|
|-9---7----5----|-(5)--------------|-(5)---------|-(5)------|
|-9---5----5----|-(5)--------------|-(5)---------|-(5)------|
|-7---5----3----|-(3)--------------|-(3)---------|-(3)------|
|---------------|------------------|-------------|----------|
|
|
| Gtr III
| Q  E Q.    Q     +E   E H.         +W            +W
|---------------|------------------|-------------|-----------|
|---------------|------------------|-------------|-----------|
|---------------|------------------|-------------|-----------|
|---------------|------------------|-------------|-----------|
|-7----9----10--|-(10)-10S7--------|-(7)---------|-(7)-------|
|---------------|------------------|-------------|-----------|
 
 
  Gtrs I, II
    PM----|   PM----|     PM----|
  |3| |-3-| |3| |-3-|   |3| |-3-|
  Q E E E E Q E E E E   Q E E E E Q  Q
|---------------------|-----------------|
|---------------------|-----------------|
|---------------------|-----------------|
|-2---------2---------|-2------------7--|
|-0-0-0-0-0-0-0-0-0-0-|-0-0-0-0-0-5--5--|
|---------------------|-----------3-----|
 
 
  Gtrs I, II
    PM----|   PM----|     PM----|
  |3| |-3-| |3| |-3-|   |3| |-3-|
  Q E E E E Q E E E E   Q E E E E Q  Q
|---------------------|-----------------|
|---------------------|-----------------|
|---------------------|-----------------|
|-2---------2---------|-2---------5-----|
|-0-0-0-0-0-0-0-0-0-0-|-0-0-0-0-0-3--5--|
|---------------------|--------------3--|
 
 
  Gtrs I, II
    PM----|   PM----|     PM----|
  |3| |-3-| |3| |-3-|   |3| |-3-|
  Q E E E E Q E E E E   Q E E E E Q  Q
|---------------------|-----------------|
|---------------------|-----------------|
|---------------------|-----------------|
|-2---------2---------|-2------------7--|
|-0-0-0-0-0-0-0-0-0-0-|-0-0-0-0-0-5--5--|
|---------------------|-----------3-----|
 
 
  Gtrs I, II
    PM----|   PM----|     PM----|
  |3| |-3-| |3| |-3-|   |3| |-3-|
  Q E E E E Q E E E E   Q E E E E H
|---------------------|--------------|
|---------------------|--------------|
|---------------------|--------------|
|-2---------2---------|-2---------5--|
|-0-0-0-0-0-0-0-0-0-0-|-0-0-0-0-0-3--|
|---------------------|--------------|
 
 
    Gtrs I, II
    PM---------------------------------|
    |3-| |-3-| |3-| |-3-|   |3-| |-3-|
    Q  E E E E Q  E E E E   Q  E E E E E Q.
||------------------------|-------------------|
||o-----------------------|-------------------|
||------------------------|-------------------|
||------------------------|--------------7----|
||o-----------------------|--------------5----|
||--0--0-0-0-0-0--0-0-0-0-|-0--0-0-0-0-0------|
 
 
  Gtrs I, II
  PM------------------------------|
  |3| |-3-| |3| |-3-|   |3| |-3-| |--3--|
  Q E E E E Q E E E E   Q E E E E Q  Q  Q  4x
|---------------------|--------------------||
|---------------------|-------------------o||
|---------------------|--------------------||
|---------------------|--------------7--7--||
|---------------------|--------------5--5-o||
|-0-0-0-0-0-0-0-0-0-0-|-0-0-0-0-0-0--------||
 
 
    Gtrs I, II
      PM----|   PM----|     PM----|
    |3| |-3-| |3| |-3-|   |3| |-3-|
    Q E E E E Q E E E E   Q E E E E Q  Q
||----------------------|-----------------|
||o---------------------|-----------------|
||----------------------|-----------------|
||--2---------2---------|-2------------7--|
||o-0-0-0-0-0-0-0-0-0-0-|-0-0-0-0-0-5--5--|
||----------------------|-----------3-----|
 
 
  Gtrs I, II
    PM----|   PM----|     PM----|
  |3| |-3-| |3| |-3-|   |3| |-3-|
  Q E E E E Q E E E E   Q E E E E Q  Q
|---------------------|------------------||
|---------------------|-----------------o||
|---------------------|------------------||
|-2---------2---------|-2---------5------||
|-0-0-0-0-0-0-0-0-0-0-|-0-0-0-0-0-3--5--o||
|---------------------|--------------3---||
 
 
    Gtrs I, II
    PM------------------------------|
    |3| |-3-| |3| |-3-|   |3| |-3-|
    Q E E E E Q E E E E   Q E E E E E Q.
||----------------------|------------------|
||o---------------------|------------------|
||----------------------|------------------|
||----------------------|-------------7----|
||o---------------------|-------------5----|
||--0-0-0-0-0-0-0-0-0-0-|-0-0-0-0-0-0------|
 
 
  Gtrs I, II
  PM------------------------------|
  |3| |-3-| |3| |-3-|   |3| |-3-| |--3--|
  Q E E E E Q E E E E   Q E E E E Q  Q  Q  4x
|---------------------|--------------------||
|---------------------|-------------------o||
|---------------------|--------------------||
|---------------------|--------------7--7--||
|---------------------|--------------5--5-o||
|-0-0-0-0-0-0-0-0-0-0-|-0-0-0-0-0-0--------||
 
 
    Gtrs I, II
      PM----|   PM----|     PM----|
    |3| |-3-| |3| |-3-|   |3| |-3-|
    Q E E E E Q E E E E   Q E E E E Q  Q
||----------------------|-----------------|
||o---------------------|-----------------|
||----------------------|-----------------|
||--2---------2---------|-2------------7--|
||o-0-0-0-0-0-0-0-0-0-0-|-0-0-0-0-0-5--5--|
||----------------------|-----------3-----|
 
 
  Gtrs I, II
    PM----|   PM----|     PM----|
  |3| |-3-| |3| |-3-|   |3| |-3-|
  Q E E E E Q E E E E   Q E E E E Q  Q
|---------------------|------------------||
|---------------------|-----------------o||
|---------------------|------------------||
|-2---------2---------|-2---------5------||
|-0-0-0-0-0-0-0-0-0-0-|-0-0-0-0-0-3--5--o||
|---------------------|--------------3---||
 
 
  Gtrs I, II
  W          +W           H    H
|----------|------------|-----------|
|----------|------------|-----------|
|-9--------|-(9)--------|-----------|
|-9--------|-(9)--------|-5----7----|
|-7--------|-(7)--------|-5----7----|
|----------|------------|-3----5----|
 
 
  Gtr III
                            ~~~~~~
                  |-3--|                              |---3----|  |--3--|  |---3----|  |--3--|
  H        +E  E  E E  E    Q.       E  +E  E  E  E   S  S  E  E  E  E  E  S  S  E  E  E  E  E
|--------------7---------|------------------8-11-12-|-11h12p11----11-12-14-11h12p11----11-------|
|----------------10p7-10-|-10b12====10r(10)-9-------|----------12-------------------12----12-11-|
|-9b11-----(9)-----------|--------------------------|-------------------------------------------|
|------------------------|--------------------------|-------------------------------------------|
|------------------------|--------------------------|-------------------------------------------|
|------------------------|--------------------------|-------------------------------------------|
|
|
| Gtrs I, II
| PM--------------------------------------------------------------------|
| |3| |-3-| |3| |-3-|      |3| |-3-| |3| |-3-|        |3| |-3-| |3| |-3-|
| Q E E E E Q E E E E      Q E E E E Q E E E E        Q E E E E Q E E E E
|------------------------|--------------------------|-------------------------------------------|
|------------------------|--------------------------|-------------------------------------------|
|------------------------|--------------------------|-------------------------------------------|
|------------------------|--------------------------|-------------------------------------------|
|-2-2-2-2-2-2-2-2-2-2----|-2-2-2-2-2-2-2-2-2-2------|-2-2-2-2-2-2-2-2-2-2-----------------------|
|------------------------|--------------------------|-------------------------------------------|
 
 
  Gtr III
   ~~~~~~~~~~
                         |---3---| |----3----|  |-3-|    |-3-| |-3-| |-3-|
   H    +Q      E E      Q  Q  E E E  S S S  S  S S Q    E E E E E E E E E E E
|-----------------7---|-10--9--7-9p7------7-----------|------------------------|
|-10---(10)\--/10-----|--------------10p7---10-10p7-7-|-10p7---7---------------|
|---------------------|-------------------------------|------9---9-7-9p7---7-7-|
|---------------------|-------------------------------|------------------9-----|
|---------------------|-------------------------------|------------------------|
|---------------------|-------------------------------|------------------------|
|
|
| Gtrs I, II
| PM----------------------------------------------------------------------|
| |3| |-3-| |3| |-3-|   |3| |-3-| |3| |-3-|             |3| |-3-| |3| |-3-|
| Q E E E E Q E E E E   Q E E E E Q E E E E             Q E E E E Q E E E E
|---------------------|-------------------------------|------------------------|
|---------------------|-------------------------------|------------------------|
|---------------------|-------------------------------|------------------------|
|---------------------|-------------------------------|------------------------|
|-2-2-2-2-2-2-2-2-2-2-|-2-2-2-2-2-2-2-2-2-2-----------|-2-2-2-2-2-2-2-2-2-2----|
|---------------------|-------------------------------|------------------------|
 
 
  Gtr III
          |-3-| |--3--| |-3-|   |-3--|                        |-3-| |--3--| |-3-|
  E    E  E E E S S E E E E E   Q Q +Q    Q.   E      E    E  E E E S S E E E E E
|------7----------------------|---------------------|------7----------------------|
|--------10p7-----------------|-9-------------------|--------10p7-----------------|
|-9b11--------9-7h9-7---7-7-7-|-9-7-(7)b8------7----|-9b11--------9-7h9-7---7-7-7-|
|---------------------9-------|-----------9---------|---------------------9-------|
|-----------------------------|---------------------|-----------------------------|
|-----------------------------|---------------------|-----------------------------|
|
|
| Gtrs I, II
| PM------------------------------------------------------------|
| |3| |-3-| |3| |-3-|   |3| |-3-| |3| |-3-|   |3| |-3-| |3| |-3-|
| Q E E E E Q E E E E   Q E E E E Q E E E E   Q E E E E Q E E E E
|-----------------------------|---------------------|-----------------------------|
|-----------------------------|---------------------|-----------------------------|
|-----------------------------|---------------------|-----------------------------|
|-----------------------------|---------------------|-----------------------------|
|-2-2-2-2-2-2-2-2-2-2---------|-2-2-2-2-2-2-2-2-2-2-|-2-2-2-2-2-2-2-2-2-2---------|
|-----------------------------|---------------------|-----------------------------|
 
 
  Gtr III
          |-3-| |--3--| |-3-|           |-3-| |--3--|        |---3---|
  E    E  E E E S S E E E E E   E    E  E E E S S E E Q      Q   Q   Q   H
|------7----------------------|------7--------------------|-19--20--22--22b24---|
|--------10p7-----------------|--------10p7---------------|---------------------|
|-9b11--------9-7h9-7---7-7-7-|-9b11--------9-7h9-7---7/--|---------------------|
|---------------------9-------|---------------------9-----|---------------------|
|-----------------------------|---------------------------|---------------------|
|-----------------------------|---------------------------|---------------------|
|
|
| Gtrs I, II
| PM--------------------------------------------------------------------------|
| |3| |-3-| |3| |-3-|           |3| |-3-| |3| |-3-|         |3| |-3-| |3| |-3-|
| Q E E E E Q E E E E           Q E E E E Q E E E E         Q E E E E Q E E E E
|-----------------------------|---------------------------|---------------------|
|-----------------------------|---------------------------|---------------------|
|-----------------------------|---------------------------|---------------------|
|-----------------------------|---------------------------|---------------------|
|-2-2-2-2-2-2-2-2-2-2---------|-2-2-2-2-2-2-2-2-2-2-------|-2-2-2-2-2-2-2-2-2-2-|
|-----------------------------|---------------------------|---------------------|
 
 
  Gtr III
   |------3-------|  |------3-------|   |------3-------|  |------3-------|
   E  E  E  E  E  E  E  E  E  E  E  E   E  E  E  E  E  E  E  E  E  E  E  E
|-15p12-14p12----12-15p12-14p12----12-|-15p12-14p12----12-15p12-14p12----12-|
|-------------14----------------14----|-------------14----------------14----|
|-------------------------------------|-------------------------------------|
|-------------------------------------|-------------------------------------|
|-------------------------------------|-------------------------------------|
|-------------------------------------|-------------------------------------|
|
|
| Gtrs I, II
| PM------------------------------------------------------|
| |3| |-3-| |3| |-3-|                   |3| |-3-| |3| |-3-|
| Q E E E E Q E E E E                   Q E E E E Q E E E E
|-------------------------------------|-------------------------------------|
|-------------------------------------|-------------------------------------|
|-------------------------------------|-------------------------------------|
|-------------------------------------|-------------------------------------|
|-------------------------------------|-------------------------------------|
|-0-0-0-0-0-0-0-0-0-0-----------------|-0-0-0-0-0-0-0-0-0-0-----------------|
 
 
  Gtr III
   |---3---|   |---3---|    |---3---|
   Q   Q   Q   Q   Q   Q    Q   Q   Q   Q   E E
|-15--14--12------12-----|----------------------|
|-------------15------15-|-14--12--14-----------|
|------------------------|-------------12--12S7-|
|------------------------|----------------------|
|------------------------|----------------------|
|------------------------|----------------------|
|
|
| Gtrs I, II
| PM-----------------------------------------|
| |3| |-3-| |3| |-3-|      |3| |-3-| |3| |-3-|
| Q E E E E Q E E E E      Q E E E E Q E E E E
|------------------------|----------------------|
|------------------------|----------------------|
|------------------------|----------------------|
|------------------------|----------------------|
|------------------------|----------------------|
|-0-0-0-0-0-0-0-0-0-0----|-0-0-0-0-0-0-0-0-0-0--|
 
 
  Gtr III
          |-3-| |-3-|  |-3-|    |-3-|  |-3-| |-3-|  |-3-|
  E    E  E E E E E E  E E E    E E E  E E E E E E  E E E
|------7-10p7---9p7---10p7---|-12p7---10p7---9p7---10p7---|
|-------------7-----7------7-|------7------7-----7------7-|
|-9b11-----------------------|----------------------------|
|----------------------------|----------------------------|
|----------------------------|----------------------------|
|----------------------------|----------------------------|
|
|
| Gtrs I, II
| PM--------------------------------------------|
| |3| |-3-| |3| |-3-|         |3| |-3-| |3| |-3-|
| Q E E E E Q E E E E         Q E E E E Q E E E E
|----------------------------|----------------------------|
|----------------------------|----------------------------|
|----------------------------|----------------------------|
|----------------------------|----------------------------|
|-2-2-2-2-2-2-2-2-2-2--------|-2-2-2-2-2-2-2-2-2-2--------|
|----------------------------|----------------------------|
 
 
  Gtr III
   |--3--|   |--3---|   |--3--|
   Q  Q  Q   Q  Q   Q   Q  Q  Q  Q  Q
|-10--9--7------7-----|---------------------|
|-----------10-----10-|-9--7--9-------------|
|---------------------|----------7--7\------|
|---------------------|---------------------|
|---------------------|---------------------|
|---------------------|---------------------|
|
|
| Gtrs I, II
| PM--------------------------------------|
| |3| |-3-| |3| |-3-|   |3| |-3-| |3| |-3-|
| Q E E E E Q E E E E   Q E E E E Q E E E E
|---------------------|---------------------|
|---------------------|---------------------|
|---------------------|---------------------|
|---------------------|---------------------|
|-2-2-2-2-2-2-2-2-2-2-|-2-2-2-2-2-2-2-2-2-2-|
|---------------------|---------------------|
 
 
  Gtr III
  |-3-| |-3-| |-3-| |-3-|   |-3-| |-3-| |-3-| |-3-|
  E E E E E E E E E E E E   E E E E E E E E E E E E
|-------------------------|-------------------------|
|-0h4h7-0h4h7-0h4h7-0h4h7-|-0h5h8-0h5h8-0h5h8-0h5h8-|
|-------------------------|-------------------------|
|-------------------------|-------------------------|
|-------------------------|-------------------------|
|-------------------------|-------------------------|
|
|
| Gtrs I, II
| PM------------------------------------------|
| |3| |-3-| |3| |-3-|       |3| |-3-| |3| |-3-|
| Q E E E E Q E E E E       Q E E E E Q E E E E
|-------------------------|-------------------------|
|-------------------------|-------------------------|
|-------------------------|-------------------------|
|-------------------------|-------------------------|
|-2-2-2-2-2-2-2-2-2-2-----|-2-2-2-2-2-2-2-2-2-2-----|
|-------------------------|-------------------------|
 
 
  Gtr III
  |-3-| |-3-| |-3-| |-3-|   |-3-| |-3-| |-3-| |-3-|
  E E E E E E E E E E E E   E E E E E E E E E E E E
|-------------------------|-0h4h7-0h4h7-0h4h7-0h4h7-|
|-0h4h7-0h4h7-0h4h7-0h4h7-|-------------------------|
|-------------------------|-------------------------|
|-------------------------|-------------------------|
|-------------------------|-------------------------|
|-------------------------|-------------------------|
|
|
| Gtrs I, II
| PM------------------------------------------|
| |3| |-3-| |3| |-3-|       |3| |-3-| |3| |-3-|
| Q E E E E Q E E E E       Q E E E E Q E E E E
|-------------------------|-------------------------|
|-------------------------|-------------------------|
|-------------------------|-------------------------|
|-------------------------|-------------------------|
|-2-2-2-2-2-2-2-2-2-2-----|-2-2-2-2-2-2-2-2-2-2-----|
|-------------------------|-------------------------|
 
 
  Gtr III
  |-3-| |-3-| |-3-| |-3-|   |-3-| |-3-|
  E E E E E E E E E E E E   E E E E E E S S S S S S S S
|-0h5h8-0h5h8-0h5h8-0h5h8-|-0h4h7-0h4h7-0h4h7p0-4h7-5h8-|
|-------------------------|-----------------------------|
|-------------------------|-----------------------------|
|-------------------------|-----------------------------|
|-------------------------|-----------------------------|
|-------------------------|-----------------------------|
|
|
| Gtrs I, II
| PM------------------------------------------|
| |3| |-3-| |3| |-3-|       |3| |-3-| |3| |-3-|
| Q E E E E Q E E E E       Q E E E E Q E E E E
|-------------------------|-----------------------------|
|-------------------------|-----------------------------|
|-------------------------|-----------------------------|
|-------------------------|-----------------------------|
|-2-2-2-2-2-2-2-2-2-2-----|-2-2-2-2-2-2-2-2-2-2---------|
|-------------------------|-----------------------------|
 
 
  Gtr III
   T      T      T      T        T      T      T      T
   |-3-|  |-3-|  |-3-|  |-3-|    |-3-|  |-3-|  |-3-|  |-3-|
   E E E  E E E  E E E  E E E    E E E  E E E  E E E  E E E
|-12p8p5-12p8p5-12p8p5-12p8p5-|-12p8p5-12p8p5-12p8p5-12p8p5-|
|-----------------------------|-----------------------------|
|-----------------------------|-----------------------------|
|-----------------------------|-----------------------------|
|-----------------------------|-----------------------------|
|-----------------------------|-----------------------------|
|
|
| Gtrs I, II
| PM----------------------------------------------|
| |3| |-3-| |3| |-3-|           |3| |-3-| |3| |-3-|
| Q E E E E Q E E E E           Q E E E E Q E E E E
|-----------------------------|-----------------------------|
|-----------------------------|-----------------------------|
|-----------------------------|-----------------------------|
|-----------------------------|-----------------------------|
|-0-0-0-0-0-0-0-0-0-0---------|-0-0-0-0-0-0-0-0-0-0---------|
|-----------------------------|-----------------------------|
 
 
  Gtr III
   T      T      T      T        T      T      T      T
   |-3-|  |-3-|  |-3-|  |-3-|    |-3-|  |-3-|  |-3-|  |-3-|
   E E E  E E E  E E E  E E E    E E E  E E E  E E E  E E E
|-13p8p5-13p8p5-13p8p5-13p8p5-|-13p8p5-13p8p5-13p8p5-13p8p5-|
|-----------------------------|-----------------------------|
|-----------------------------|-----------------------------|
|-----------------------------|-----------------------------|
|-----------------------------|-----------------------------|
|-----------------------------|-----------------------------|
|
|
| Gtrs I, II
| PM----------------------------------------------|
| |3| |-3-| |3| |-3-|           |3| |-3-| |3| |-3-|
| Q E E E E Q E E E E           Q E E E E Q E E E E
|-----------------------------|-----------------------------|
|-----------------------------|-----------------------------|
|-----------------------------|-----------------------------|
|-----------------------------|-----------------------------|
|-----------------------------|-----------------------------|
|-1-1-1-1-1-1-1-1-1-1---------|-1-1-1-1-1-1-1-1-1-1---------|
 
 
  Gtr III
   T      T      T      T        T      T      T      T
   |-3-|  |-3-|  |-3-|  |-3-|    |-3-|  |-3-|  |-3-|  |-3-|
   E E E  E E E  E E E  E E E    E E E  E E E  E E E  E E E
|-13p9p6-13p9p6-13p9p6-13p9p6-|-13p9p6-13p9p6-13p9p6-13p9p6-|
|-----------------------------|-----------------------------|
|-----------------------------|-----------------------------|
|-----------------------------|-----------------------------|
|-----------------------------|-----------------------------|
|-----------------------------|-----------------------------|
|
|
| Gtrs I, II
| PM----------------------------------------------|
| |3| |-3-| |3| |-3-|           |3| |-3-| |3| |-3-|
| Q E E E E Q E E E E           Q E E E E Q E E E E
|-----------------------------|-----------------------------|
|-----------------------------|-----------------------------|
|-----------------------------|-----------------------------|
|-----------------------------|-----------------------------|
|-1-1-1-1-1-1-1-1-1-1---------|-1-1-1-1-1-1-1-1-1-1---------|
|-----------------------------|-----------------------------|
 
 
  Gtr III
   T      T      T      T        T      T      T      T
   |-3-|  |-3-|  |-3-|  |-3-|    |-3-|  |-3-|  |-3-|  |-3-|
   E E E  E E E  E E E  E E E    E E E  E E E  E E E  E E E
|-14p9p6-14p9p6-14p9p6-14p9p6-|-14p9p6-14p9p6-14p9p6-14p9p6-|
|-----------------------------|-----------------------------|
|-----------------------------|-----------------------------|
|-----------------------------|-----------------------------|
|-----------------------------|-----------------------------|
|-----------------------------|-----------------------------|
|
|
| Gtrs I, II
| PM----------------------------------------------|
| |3| |-3-| |3| |-3-|           |3| |-3-| |3| |-3-|
| Q E E E E Q E E E E           Q E E E E Q E E E E
|-----------------------------|-----------------------------|
|-----------------------------|-----------------------------|
|-----------------------------|-----------------------------|
|-----------------------------|-----------------------------|
|-----------------------------|-----------------------------|
|-2-2-2-2-2-2-2-2-2-2---------|-2-2-2-2-2-2-2-2-2-2---------|
 
 
  Gtr III
   T       T       T       T         T       T       T       T
   |-3--|  |-3--|  |-3--|  |-3--|    |-3--|  |-3--|  |-3--|  |-3-|
   E  E E  E  E E  E  E E  E  E E    E  E E  E  E E  E  E E  Q   E
|-14p10p7-14p10p7-14p10p7-14p10p7-|-14p10p7-14p10p7-14p10p7-14/--7-|
|---------------------------------|--------------------------------|
|---------------------------------|--------------------------------|
|---------------------------------|--------------------------------|
|---------------------------------|--------------------------------|
|---------------------------------|--------------------------------|
|
|
| Gtrs I, II
| PM--------------------------------------------------|
| |3| |-3-| |3| |-3-|               |3| |-3-| |3| |-3-|
| Q E E E E Q E E E E               Q E E E E Q E E E E
|---------------------------------|--------------------------------|
|---------------------------------|--------------------------------|
|---------------------------------|--------------------------------|
|---------------------------------|--------------------------------|
|-2-2-2-2-2-2-2-2-2-2-------------|-2-2-2-2-2-2-2-2-2-2------------|
|---------------------------------|--------------------------------|
 
 
  Gtr III
  |-3-| |-3-| |-3-| |-3-|   |-3-| |-3-| |-3-| |-3-|
  E E E E E E E E E E E E   E E E E E E E E E E E E
|-0h4h7-------0h4h7-------|-0h4h7-------0h4h7-------|
|-------0h4h7-------0h4h7-|-------0h4h7-------0h4h7-|
|-------------------------|-------------------------|
|-------------------------|-------------------------|
|-------------------------|-------------------------|
|-------------------------|-------------------------|
|
|
| Gtrs I, II
| PM--------------------------------------|
| |3| |-3-| |3| |-3-|   |3| |-3-| |3| |-3-|
| Q E E E E Q E E E E   Q E E E E Q E E E E
|-------------------------|-------------------------|
|-------------------------|-------------------------|
|-------------------------|-------------------------|
|-------------------------|-------------------------|
|-2-2-2-2-2-2-2-2-2-2-----|-2-2-2-2-2-2-2-2-2-2-----|
|-------------------------|-------------------------|
 
 
  Gtr III
  |-3-| |-3-| |-3-| |-3-|   |-3-| |-3-| |-3-| |-3-|
  E E E E E E E E E E E E   E E E E E E E E E E E E
|-------------------------|-------------------------|
|-0h4h7-------0h4h7-------|-0h4h7-------0h4h7-------|
|-------0h4h7-------0h4h7-|-------0h4h7-------0h4h7-|
|-------------------------|-------------------------|
|-------------------------|-------------------------|
|-------------------------|-------------------------|
|
|
| Gtrs I, II
| PM------------------------------------------|
| |3| |-3-| |3| |-3-|       |3| |-3-| |3| |-3-|
| Q E E E E Q E E E E       Q E E E E Q E E E E
|-------------------------|-------------------------|
|-------------------------|-------------------------|
|-------------------------|-------------------------|
|-------------------------|-------------------------|
|-2-2-2-2-2-2-2-2-2-2-----|-2-2-2-2-2-2-2-2-2-2-----|
|-------------------------|-------------------------|
 
 
  Gtr III
  |-3-| |-3-| |-3-| |-3-|   |-3-| |-3-| |-3-| |-3-|
  E E E E E E E E E E E E   E E E E E E E E E E E E
|-------------------------|-------------------------|
|-------------------------|-------------------------|
|-0h4h7-------0h4h7-------|-0h4h7-------0h4h7-------|
|-------0h4h7-------0h4h7-|-------0h4h7-------0h4h7-|
|-------------------------|-------------------------|
|-------------------------|-------------------------|
|
|
| Gtrs I, II
| PM------------------------------------------|
| |3| |-3-| |3| |-3-|       |3| |-3-| |3| |-3-|
| Q E E E E Q E E E E       Q E E E E Q E E E E
|-------------------------|-------------------------|
|-------------------------|-------------------------|
|-------------------------|-------------------------|
|-------------------------|-------------------------|
|-2-2-2-2-2-2-2-2-2-2-----|-2-2-2-2-2-2-2-2-2-2-----|
|-------------------------|-------------------------|
 
 
  Gtr III
  |-3-| |-3-| |-3-| |-3-|
  E E E E E E E E E E E E    Q   Q    E  S S  S  S S S
|-------------------------|------------------------7-7-|
|-------------------------|----------------7-10-10-----|
|-------------------------|--------------9-------------|
|-0h4h7-------0h4h7-------|----------------------------|
|-------0h4h7-------0h4h7-|-14S=(7)S=(2)---------------|
|-------------------------|----------------------------|
|
|
| Gtrs I, II
| PM------------------------------------------|
| |3| |-3-| |3| |-3-|       |3| |-3-| |3| |-3-|
| Q E E E E Q E E E E       Q E E E E Q E E E E
|-------------------------|----------------------------|
|-------------------------|----------------------------|
|-------------------------|----------------------------|
|-------------------------|----------------------------|
|-2-2-2-2-2-2-2-2-2-2-----|-2-2-2-2-2-2-2-2-2-2--------|
|-------------------------|----------------------------|
 
 
  Gtr III
                     |-3-|      |-3-|                       |-3-|
   S S S S  S S S S  E E E  S S S S S    S  S S S  S S S S  S S S S S  S S S S
|-10-7-7-7-12-7-7-7-10-7-7-12-7-7-7-7-|-10-10-7-7-12-7-7-7-10p9p7-7-7-12p7-7-7-|
|-------------------------------------|----------------------------------------|
|-------------------------------------|----------------------------------------|
|-------------------------------------|----------------------------------------|
|-------------------------------------|----------------------------------------|
|-------------------------------------|----------------------------------------|
|
|
| Gtrs I, II
| PM------------------------------------------------------|
| |3| |-3-| |3| |-3-|                   |3| |-3-| |3| |-3-|
| Q E E E E Q E E E E                   Q E E E E Q E E E E
|-------------------------------------|----------------------------------------|
|-------------------------------------|----------------------------------------|
|-------------------------------------|----------------------------------------|
|-------------------------------------|----------------------------------------|
|-------------------------------------|----------------------------------------|
|-0-0-0-0-0-0-0-0-0-0-----------------|-0-0-0-0-0-0-0-0-0-0--------------------|
 
 
  Gtr III
                                                  ~~~
   |-3-|     |-3-| |-3-| |-3-| |-3-|                   |-3--|
   S S S S S E E E S S S S S S E E E   +E  E E E +E  E E E  E
|-10p9p7-7-7---7-5-8-6-5-8-6-5-------|------------------------|
|------------------------------6-5-7-|-(7)-5-----------7-7-10-|
|----------------------------------7-|-(7)---7-7-(7)-7--------|
|------------------------------------|------------------------|
|------------------------------------|------------------------|
|------------------------------------|------------------------|
|
|
| Gtrs I, II
| PM-----------------------------------------------------|
| |3| |-3-| |3| |-3-|                  |3| |-3-| |3| |-3-|
| Q E E E E Q E E E E                  Q E E E E Q E E E E
|------------------------------------|------------------------|
|------------------------------------|------------------------|
|------------------------------------|------------------------|
|------------------------------------|------------------------|
|------------------------------------|------------------------|
|-0-0-0-0-0-0-0-0-0-0----------------|-0-0-0-0-0-0-0-0-0-0----|
 
 
  Gtr III
                |-3-| |-3-|   |-3-|
   Q.      +E   E E E E E E   E E E E +E   E  Q.        Q  E E  E S S E  E
|---------------------------|----------------10b12r==|=10--9-7-/9p7-9-7----|
|-10b12r==(10)-10-7---7-----|------------------------|------------------10-|
|-------------------9---9-7-|-9p7---7-(7)/-----------|---------------------|
|---------------------------|-----9------------------|---------------------|
|---------------------------|------------------------|---------------------|
|---------------------------|------------------------|---------------------|
|
|
| Gtrs I, II
| PM---------------------------------------------------------------------|
| |3| |-3-| |3| |-3-|         |3| |-3-| |3| |-3-|      |3| |-3-| |3| |-3-|
| Q E E E E Q E E E E         Q E E E E Q E E E E      Q E E E E Q E E E E
|---------------------------|------------------------|---------------------|
|---------------------------|------------------------|---------------------|
|---------------------------|------------------------|---------------------|
|---------------------------|------------------------|---------------------|
|-2-2-2-2-2-2-2-2-2-2-------|-2-2-2-2-2-2-2-2-2-2----|-2-2-2-2-2-2-2-2-2-2-|
|---------------------------|------------------------|---------------------|
 
 
  Gtr III
    \1/
    E  S  S Q  H
|---------------------|
|-(10)p8-10-8---------|
|--------------7------|
|---------------------|
|---------------------|
|---------------------|
|
|
| Gtrs I, II
| PM----------------|
| |3| |-3-| |3| |-3-|
| Q E E E E Q E E E E
|---------------------|
|---------------------|
|---------------------|
|---------------------|
|-2-2-2-2-2-2-2-2-2-2-|
|---------------------|
 
 
    Gtrs I, II
      PM----|   PM----|     PM----|
    |3| |-3-| |3| |-3-|   |3| |-3-|
    Q E E E E Q E E E E   Q E E E E Q  Q
||----------------------|-------------------|
||o---------------------|-------------------|
||----------------------|-------------------|
||--2---------2---------|-2------------7----|
||o-0-0-0-0-0-0-0-0-0-0-|-0-0-0-0-0-5--5----|
||----------------------|-----------3-------|
 
 
  Gtrs I, II
    PM----|   PM----|     PM----|
  |3| |-3-| |3| |-3-|   |3| |-3-|
  Q E E E E Q E E E E   Q E E E E Q  Q
|---------------------|------------------||
|---------------------|-----------------o||
|---------------------|------------------||
|-2---------2---------|-2---------5------||
|-0-0-0-0-0-0-0-0-0-0-|-0-0-0-0-0-3--5--o||
|---------------------|--------------3---||
 
 
    Gtrs I, II
    PM------------------------------|
    |3| |-3-| |3| |-3-|   |3| |-3-|
    Q E E E E Q E E E E   Q E E E E E Q.
||----------------------|-------------------|
||o---------------------|-------------------|
||----------------------|-------------------|
||----------------------|-------------7-----|
||o---------------------|-------------5-----|
||--0-0-0-0-0-0-0-0-0-0-|-0-0-0-0-0-0-------|
 
 
  Gtrs I, II
  PM------------------------------|
  |3| |-3-| |3| |-3-|   |3| |-3-| |-3-|
  Q E E E E Q E E E E   Q E E E E Q Q Q  4x
|---------------------|------------------||
|---------------------|-----------------o||
|---------------------|------------------||
|---------------------|-------------7-7--||
|---------------------|-------------5-5-o||
|-0-0-0-0-0-0-0-0-0-0-|-0-0-0-0-0-0------||
 
 
    Gtrs I, II
      PM----|   PM----|     PM----|
    |3| |-3-| |3| |-3-|   |3| |-3-|
    Q E E E E Q E E E E   Q E E E E Q  Q
||----------------------|-------------------|
||o---------------------|-------------------|
||----------------------|-------------------|
||--2---------2---------|-2------------7----|
||o-0-0-0-0-0-0-0-0-0-0-|-0-0-0-0-0-5--5----|
||----------------------|-----------3-------|
 
 
  Gtrs I, II
    PM----|   PM----|     PM----|
  |3| |-3-| |3| |-3-|   |3| |-3-|
  Q E E E E Q E E E E   Q E E E E Q  Q   4x
|---------------------|------------------||
|---------------------|-----------------o||
|---------------------|------------------||
|-2---------2---------|-2---------5------||
|-0-0-0-0-0-0-0-0-0-0-|-0-0-0-0-0-3--5--o||
|---------------------|--------------3---||
 
 
    Gtrs I, II
               PM       PM
                          |-3-| |-3-|
    Q  Q  E Q  E   E Q  E E E E E E E  3x
||---------------|---------------------||
||o--------------|--------------------o||
||---------------|---------------------||
||-----9--7-7----|-7-7-----------------||
||o----7--5-5----|-5-5--------5-7p5---o||
||--0----------0-|------0-5h7-------7--||
 
 
  Gtrs I, II
  Q  Q  E Q  E   E Q  E Q  Q
|--------------|--------------|
|--------------|--------------|
|--------------|--------------|
|----9--7-7----|-7-7----7-----|
|----7--5-5----|-5-5----5--7--|
|-0------------|-----------5--|
 
 
    Gtrs I, II
    PM----|   PM|     PM--|
    E E E E E E E E   E E E E +Q   Q   6x Q  Q  Q  Q
||------------------|------------------||-------------|
||o-----------------|-----------------o||-------------|
||------------------|------------------||-------------|
||------------------|------------------||-------------|
||o---------5-----7-|-------8-(8)--7--o||-------5--2--|
||--0-0-0-0-3-0-0-5-|-0-0-0-6-(6)--5---||-x--x--3--0--|
 


My mother was a witch,
she was burned alive
Thankless little bitch,
for the tears I cried
Take her down now,
dont want to see her face
All blistered and burnt,
cant hide my disgrace

Twenty-seven,
everyone was nice
Gotta see em make em pay the price
See their bodies out on the ice
Take my time

Am I evil?
yes, I am
Am I evil?
I am man,
yes, I am

As I watched my mother die,
I lost my head
Revenge now I sought,
to break with my bread
Taking no chances,
you come with me
Ill split you to the bone,
help set you free

Twenty-seven,
everyone was nice
Gotta see em,
make em pay the price
See their bodies out on the ice
Take my time

Am I evil?
yes, I am
Am I evil?
I am man,
yes, I am,

On with the action now,
Ill strip your pride
Ill spread your blood around,
Ill see you ride
Your face is scarred with steel, wounds deep and neat
Like a double dozen before ya,
smells so sweet

Am I evil?
yes, I am
Am I evil?
I am man

Ill make my residence,
Ill watch your fire
You can come with me,
sweet desire
My face is long forgot,
my face not my own
Sweet and timely whore,
take me home

Am I evil?
yes, I am
Am I evil?
I am man

My soul is longing for,
await my heir
Sent to avenge my mother,
sweep myself
My face is long forgot,
my face not my own
Sweet and timely whore,
take me home

Am I evil?
yes, I am
Am I evil?
I am man

Am I evil?
yes, I fucking am
Am I evil?
I am man, yeah


 
Duration Legend
---------------
W - whole;
H - half;
Q - quarter;
E - 8th;
S - 16th;
T - 32nd;
X - 64th; a - acciaccatura
+ - note tied to previous;
. - note dotted;
.. - note double dotted
Uncapitalized letters represent notes that are staccato (1/2 duration)
Irregular groupings are notated above the duration line
Duration letters will always appear directly above the note/fret number it represents the
duration for.  Duration letters with no fret number below them represent rests.  Multi-
bar rests are notated in the form Wxn, where n is the number of bars to rest for.  Low
melody durations appear below the staff
 
Tablature Legend
----------------
 h   - hammer-on
 p   - pull-off
 b   - bend
 pb  - pre-bend
 r   - bend release (if no number after the r, then release immediately)
 /\  - slide into or out of (from/to "nowhere")
 s   - legato slide
 S   - shift slide
  - natural harmonic
[n]  - artificial harmonic
n(n) - tapped harmonic
 ~   - vibrato
 tr  - trill
 T   - tap
 TP  - trem. picking
 PM  - palm muting
\n/  - tremolo bar dip; n = amount to dip
 \n  - tremolo bar down
 n/  - tremolo bar up
/n\  - tremolo bar inverted dip
 =   - hold bend; also acts as connecting device for hammers/pulls
   - volume swell (louder/softer)
 x   - on rhythm slash represents muted slash
 o   - on rhythm slash represents single note slash
 
Misc Legend
-----------
 |  - bar
||  - double bar
||o - repeat start
o|| - repeat end
*|  - double bar (ending)
 :  - bar (freetime)
 $  - Segno
 &  - Coda
Tempo markers -  = BPM(8/16=s8/s16), where s8 = swing 8ths, s16 = swing 16ths




-----------------

version 3



 
Tuning:Standard(EADGBe) 

 
Guitar1 = Rythym
Guitar2 = Lead
 
Intro Part 1 (Guitars1&2)
|-----------------------|
|-----------------------|
|-9-----7-10-11-----12--|
|-9-----7-10-11-----12--|
|-7-----5-8--9------10--|
|-----------------------|
 
Intro Part 2(Guitar1)
|--------------------------------------------|
|--------------------------------------------|
|--9---------9---------9---------------------|
|--9---------9---------9---------------------|
|--7---------7---------7---------------------|
|-------0-0-0----0-0-0----0-0-0-0-0-0-0-0----|
        . . .    . . .    . . . . . . . .  
 
Intro Part3(Guitar2)Listen for when it comes in
|----------------------------------------------|
|----------------------------------------------|
|----------------------------------------------|
|----------------------------------------------|
|-12\2------9-9-9-9-9-9-8-------3-3-3-3-3-3-2--|
|-10\0------7-7-7-7-7-7-6-------1-1-1-1-1-1-0--|
 
|------------------------------------|
|------------------------------------|
|------------------------------------|
|------------------------------------|
|-9-9-9-9-9-9-8-------3-3-3-3-3-3-2--|
|-7-7-7-7-7-7-6-------1-1-1-1-1-1-0--|
 
|------------------------------------|
|------------------------------------|
|------------------------------------|
|------------------------------------|
|-9-9-9-9-9-9-8-------8-8-8-8-8-8-9--|
|-7-7-7-7-7-7-6-------6-6-6-6-6-6-7--|
 
|------------------------------------|
|------------------------------------|
|------------------------------------|
|------------------------------------|
|-9-9-9-9-9-9-8-------3-3-3-3-3-3-2--|
|-7-7-7-7-7-7-6-------1-1-1-1-1-1-0--|
 
Guitars 1&2Intro Part 4
|-------------------------------------------|
|-------------------------------------------|
|-----------------------9-------9---------9-|
|-7-7-7-7-7-7-9---------9-------9---------9-|
|-5-5-5-5-5-5-7---------7-------7---------7-|
|------------------0-0-0----0-0-0----0-0-0--|
                   . . .    . . .    . . .
Intro Part 5Guitars 1&2
|----------------------------------|
|-------------5-4-5-7---7\9--9\11--|
|---------4-3----------------------|
|-----3-2--------------------------|
|-2-1------------------------------|
|0---------------------------------|
 
 
Intro Solo Guitar 2
|-------------------------------------------------|
|-0h5h8-0h5h8-0h5h8-0h5h8-0h5h8-0h5h8-0h5h8-0h5h8-|
|-------------------------------------------------|
|-------------------------------------------------|
|-------------------------------------------------|
|-------------------------------------------------|
 
|-------------------------------------------------|
|-0h4h7-0h4h7-0h4h7-0h4h7-0h4h7-0h4h7-0h4h7-0h4h7-|
|-------------------------------------------------|
|-------------------------------------------------|
|-------------------------------------------------|
|-------------------------------------------------|
 
|--------------------------------------------------------------------|
|-0h5h8-0h5h8-0h5h8-0h5h8-0h7h9-0h7h9-0h5h8-0h5h8-0h4h7-0h4h7-0h4h7--|
|--------------------------------------------------------------------|
|--------------------------------------------------------------------|
|--------------------------------------------------------------------|
|--------------------------------------------------------------------|
 
|--7---------|
|-7----------|
|------7-----|
|----7-------|
|----------7-|
|--------7--|
 
Verse(Both Guitars)
|-------------------------|
|-------------------------|
|-------------------------|
|-------------------------|
|---------5-----7-----8-7-|
|-0-0-0-0-3-0-0-5-0-0-6-5-|
  . . . .   . .   . .
 
Pre-Chorus (Both Guitars)
|----------------------------|
|----------------------------|
|----------------------------|
|---------7-----9-------10-9-|
|-9-9-9-9-5-9-9-7-9-9-9-8--7-|
|-7-7-7-7---7-7---7-7-7------|
  . . . .   . .   . . .
 
Chorus(Both Guitars
|-------------------------|
|-------------------------|
|-------------------------|
|-------------------------|
|---------5-----7-----8-7-|
|-0-0-0-0-3-0-0-5-0-0-6-5-|
  . . . .   . .   . .
 
After Chorus   both
|---------|
|---------|
|---------|
|-9-7-5-5-|
|-7-5-3-3-|
|---------|
 
Interlude Part 1 both
|-------------------------------------------------------------------------|
|-------------------------------------------------------------------------|
|-------------------------------------------------------------------------|
|---------------------------------7-------------------------------5-------|
|--7-------7----------7-------5---5-----7-------7---------7-------3---5---|
|--5--5555-5--5555----5--5555-3---------5--5555-5--5555---5--5555-----3---|
      ....    ....       ....              ....    ....      ....
 
Interlude Part 2 both
|-----------------------------------------------------|
|-----------------------------------------------------|
|-----------------------------------------------------|
|-----------------------7-----------------------7--7--|
|-----------------------5-----------------------5--5--|
|-0-0000-0-0000-0-0000-----0-0000-0-0000-0-0000-------|
  . .... . .... . ....     . .... . .... . ....
 
befor solo guitar 1
|------------|
|------------|
|------------|
|------------|
|-2----5---7-|
|-0----3---5-|
 
Under Solo(something like this)
|-------|Do this sevral times then|------|
|-------|                         |------|
|-------|                         |------|
|-------|                         |------|
|-------|                         |------|
|-7-7777|                         |0-0000|
  . ....                           . ....
Solo
|----7---------7-----11--12-11h12p11----11--12-14--11h12p11----12--11------|
|------10p7-------12-----------------12---------------------12--------12-10|
|-9b---------9-------------------------------------------------------------|
|--------------------------------------------------------------------------|
|--------------------------------------------------------------------------|
|--------------------------------------------------------------------------|
 
|------7--10-9-7-7h9p7----7-------------------------------------7--------|
|-7/10-----------------10----10-7--10p7-----7---------------------10p7---|
|-----------------------------------------9---9-7-9p7---7-7--9b--------9-|
|-----------------------------------------------------9------------------|
|------------------------------------------------------------------------|
|------------------------------------------------------------------------|
 
|----------------------------7---------------------------7---------------|
|-------------9-----------------10p7------------------------10p7---------|
|-9p7---7-9-7-9--7-7---7--9b----------9--9p7---7-9-7--9b---------9--9p7--|
|-----9--------------9-----------------------9---------------------------|
|------------------------------------------------------------------------|
|------------------------------------------------------------------------|
 
|-------------7---------------------19-20-22-22b--15p12-14p12---12-------|
|----------------10p7-----------------------------------------14---------|
|---7-9-7--9b---------9--9p7-----7---------------------------------------|
|-9---------------------------9------------------------------------------|
|------------------------------------------------------------------------|
|------------------------------------------------------------------------|
 
|-15p12-14p12-----12-15p12-14p12-----12--15p12-14p12-------12------------|
|--------------14-----------------14-------------------14----------------|
|------------------------------------------------------------------------|
|------------------------------------------------------------------------|
|------------------------------------------------------------------------|
|------------------------------------------------------------------------|
 
|-15-14-12----12------------------------------7-10p7----9p7----10p7-------|
|----------15----15---14-12-14-----------------------7------7--------7----|
|-------------------------------12--12/7--9b------------------------------|
|-------------------------------------------------------------------------|
|-------------------------------------------------------------------------|
|-------------------------------------------------------------------------|
 
|-12p7----10p7-----9p7----10p7-----10-9-7------7--------------------------|
|------7--------7------7--------7-----------10---10--9-7-9----------------|
|-----------------------------------------------------------7---7---------|
|-------------------------------------------------------------------------|
|-------------------------------------------------------------------------|
|-------------------------------------------------------------------------|
 
|-------------------------------------------------------------------------|
|-0h4h7-0h4h7-0h4h7-0h4h7-0h5h8-0h5h8-0h5h8-0h5h8-0h4h7-0h4h7-0h4h7-0h4h7-|
|-------------------------------------------------------------------------|
|-------------------------------------------------------------------------|
|-------------------------------------------------------------------------|
|-------------------------------------------------------------------------|
 
|-0h4h7-0h4h7-0h4h7-0h4h7-0h5h8-0h5h8-0h5h8-0h5h8-0h4h7-0h4h7-0h4h7-0h4h7-|
|-------------------------------------------------------------------------|
|-------------------------------------------------------------------------|
|-------------------------------------------------------------------------|
|-------------------------------------------------------------------------|
|-------------------------------------------------------------------------|
 
|-12p8p5-12p8p5-12p8p5-12p8p5-12p8p5-12p8p5-12p8p5-12p8p5-13p8p5-13p8p5---|
|-------------------------------------------------------------------------|
|-------------------------------------------------------------------------|
|-------------------------------------------------------------------------|
|-------------------------------------------------------------------------|
|-------------------------------------------------------------------------|
 
|-13p8p5-13p8p5-13p8p5-13p8p5-13p8p5-13p8p5-13p9p6-13p9p6-13p9p6-13p9p6---|
|-------------------------------------------------------------------------|
|-------------------------------------------------------------------------|
|-------------------------------------------------------------------------|
|-------------------------------------------------------------------------|
|-------------------------------------------------------------------------|
 
|-13p9p6-13p9p6-13p9p6-13p9p6-14p10p7-14p10p7-14p10p7-14p10p7-14p10p7-----|
|-------------------------------------------------------------------------|
|-------------------------------------------------------------------------|
|-------------------------------------------------------------------------|
|-------------------------------------------------------------------------|
|-------------------------------------------------------------------------|
 
|-14p10p7-14p10p7-0h4h7-0h4h7-------0h4h7-------0h4h7-------0h4h7---------|
|-----------------------------0h4h7-------0h4h7-------0h4h7-------0h4h7---|
|-------------------------------------------------------------------------|
|-------------------------------------------------------------------------|
|-------------------------------------------------------------------------|
|-------------------------------------------------------------------------|
 
|-------------------------------------------------------------------------|
|-0h4h7-------0h4h7-------0h4h7-------0h4h7-------------------------------|
|-------0h4h7-------0h4h7-------0h4h7-------0h4h7-------0h4h7-------0h4h7-|
|-------------------------------------------------0h4h7-------0h4h7-------|
|-------------------------------------------------------------------------|
|-------------------------------------------------------------------------|
 
|-------------------------------------------------------------------------|
|----------------------------------------------------------------7-10-10--|
|-------0h4h7-------0h4h7------------------------------------9------------|
|-0h4h7-------0h4h7-------0h4h7--0h4h7-------0h4h7-------9/---------------|
|--------------------------------------0h4h7-------0h4h7------------------|
|-------------------------------------------------------------------------|
 
|-------------------------------------------------------------------------|
|-12-12-15-12-12-12-17-12-12-12-15-12-12-12-17-12-12-12-15-12-12-17-12-12-|
|-------------------------------------------------------------------------|
|-------------------------------------------------------------------------|
|-------------------------------------------------------------------------|
|-------------------------------------------------------------------------|
 
|-12-15p14p12-12-12-17p12-12-12-15p14p12-12-12-12-12-10-13p11p10-13p11p10-|
|-------------------------------------------------------------------------|
|-------------------------------------------------------------------------|
|-------------------------------------------------------------------------|
|-------------------------------------------------------------------------|
|-------------------------------------------------------------------------|
 
|------------------------------------------------------------10b-9-7-9p7--|
|------7-------------7-7-10-10b--10p7---7---------------------------------|
|-10-9-7---9-7-7--7-------------------9----9-7--9p7----7--7---------------|
|----------------------------------------------------9--------------------|
|-------------------------------------------------------------------------|
|-------------------------------------------------------------------------|
 
|-9-7----------------------------------------------------------------------|
|------10--10p8h10-7h8p7---------------------------------------------------|
|-------------------------7h9p7--------------------------------------------|
|--------------------------------------------------------------------------|
|--------------------------------------------------------------------------|
|--------------------------------------------------------------------------|
 
Outro part 1 both
|----------------------------------------------------------------------|
|----------------------------------------------------------------------|
|----------------------------------------------------------------------|
|-----9---7-7--7-7-----------------------------------------------------|
|-----7---5-5--5-5--------7p5p0----------------------------------------|
|-0-0-----------------0h5h7-------5------------------------------------|
  . .
 
Outto Part 2 both
|------|
|------|
|------|
|-7----|
|-5--7-|
|----5-|
 
Outro Part 3 both
|-------------------------|
|-------------------------|
|-------------------------|
|-------------------------|
|-------5-----7-------8-5-|
|-0-0-0-3-0-0-5-0-0-0-6-7-|
   . . .   . .   . . .
 
Outro Part 4 both
|------------------------------------|
|------------------------------------|
|------------------------------------|
|------------------------------------|
|-------5-----7-------8-7--7-7--5-2--|
|-0-0-0-3-0-0-5-0-0-0-6-5--5-5--3-0--|
  . . .   . .   . . .      x x
 
Guitar 1:
Intro Part 1:1 time
Intro Part 2:10 times
Intro Part 3:0 times
Intro Part 4:3 times
Intro Part 5:1 time
Intro Solo:0 times
Verse:16 times
Pre Chorus:4 times
Chorus:4 times
Verse:10 times
Pre Chorus:4 times
Chorus:4 times
After Chorus:1 time
Verse:1time
After Chorus:4 times
Interlude Part 1:2 times
Interlude Part 2:4 times
Interlude Part 1:2 times
Interlude Part 2:4 times
Interlude Part 1:2 times
Befor Solo:1 time
Under Solo:Many times
Solo:0 times
Interlude Part 1:2 times
Interlude Part 2:4 times
Interlude Part 1:2 times
Interlude Part 2:4 times
Interlude Part 1:4 times
Outro Part 1:4 times
Outro Part 2:1 times
Outro Part 3:5 time
Outro Part 4:1 time
 
Guitar 2:
Intro Part 1:1 time
Intro Part 2:0 times
Intro Part 3:1 times
Intro Part 4:3 times
Intro Part 5:1 time
Intro Solo:1 times
Verse:16 times
Pre Chorus:4 times
Chorus:4 times
Verse:10 times
Pre Chorus:4 times
Chorus:4 times
After Chorus:1 time
Verse:1time
After Chorus:4 times
Interlude Part 1:2 times
Interlude Part 2:4 times
Interlude Part 1:2 times
Interlude Part 2:4 times
Interlude Part 1:2 times
Befor Solo:0 time
Under Solo:0 times
Solo:1 time
Interlude Part 1:2 times
Interlude Part 2:4 times
Interlude Part 1:2 times
Interlude Part 2:4 times
Interlude Part 1:4 times
Outro Part 1:4 times
Outro Part 2:1 times
Outro Part 3:5 time
Outro Part 4:1 time
 


 
Lyrics:
(originally recorded by diamond head)
 
My mother was a witch, she was burned alive
Thankless little bitch, for the tears I cried
Take her down now, dont want to see her face
All blistered and burnt, cant hide my disgrace
 
Twenty-seven, everyone was nice
Gotta see em make em pay the price
See their bodies out on the ice
Take my time
 
Am I evil? yes, I am
Am I evil? I am man, yes, I am
 
As I watched my mother die, I lost my head
Revenge now I sought, to break with my bread
Taking no chances, you come with me
Ill split you to the bone, help set you free
 
Twenty-seven, everyone was nice
Gotta see em, make em pay the price
See their bodies out on the ice
Take my time
 
Am I evil? yes, I am
Am I evil? I am man, yes, I am, ooh
 
On with the action now, Ill strip your pride
Ill spread your blood around, Ill see you ride
Your face is scarred with steel, wounds deep and neat
Like a double dozen before ya, smells so sweet
 
Am I evil? yes, I am
Am I evil? I am man
 
Ill make my residence, Ill watch your fire
You can come with me, sweet desire
My face is long forgot, my face not my own
Sweet and timely whore, take me home
 
Am I evil? yes, I am
Am I evil? I am man
 
 
My soul is longing for, await my heir
Sent to avenge my mother, sweep myself
My face is long forgot, my face not my own
Sweet and timely whore, take me home
 
Am I evil? yes, I am
Am I evil? I am man
 
Am I evil? yes, I fucking am
Am I evil? I am man, yeah







| /  slide up
| \  slide down
| h  hammer-on
| p  pull-off
| ~  vibrato
| +  harmonic
| .  Palm Mute note
| x  Mute note






------------------

version 4





                                    Play this twice
|---------------------|-------------------------------------------------|
|---------------------|-------------------------------------------------|
|-9----7--9--10---12--|------------4----------4----------------------4--|
|-9----7--9--10---12--|--2---------2----------2----------------------2--|
|-7----5--7--8----10--|--2---2-2-2------2-2-2------2-2-2-2-2-2-2-2-2----|
|-0-------------------|--0---0-0-0-0----0-0-0-0----0-0-0-0-0-0-0-0-0-0--|
 
 
|-----------------------------------------------------------------------|
|-----------------------------------------------------------------------|
|-----------------------------------------------------------------------|
|-------------4-----3-----------------------4------3--------------------|
|--14\--2-----2-----1---------3-----2-------2------1---------3------2---|
|--12\--0---------------------1-----0------------------------1------0---|
 
 
|-----------------------------------------------------------------------|
|-----------------------------------------------------------------------|
|-----------------5------4----------------------------------------------|
|---4------3------3------2----------4-------3---------------------------|
|---2------1------------------------2-------1--------3--------2---------|
|-----------------------------0----------------------1--------0---------|
 
 
|-----------------------------------------------------------------------|
|-----------------------------------------------------------------------|
|-7-7-7-7-7-7--9----------4----------4-----------7-7-7-7-7-7-9----------|
|-7-7-7-7-7-7--9----------2----------2-----------7-7-7-7-7-7-9----------|
|-5-5-5-5-5-5--7----2-2-2------2-2-2------2-2-2--5-5-5-5-5-5-7----------|
|-------------------0-0-0-0----0-0-0-0----0-0-0-------------------------|
 
 
|-----------------------------------------------------------------------|
|-------------------------------------------------------------6--5--6---|
|-------4---------4----------7-7-7-7-7-7----------------4--3------------|
|-------2---------2----------7-7-7-7-7-7----------3--2------------------|
|-2-2-2-----2-2-2-----2-2-2--5-5-5-5-5-5----2--1------------------------|
|-0-0-0-0---0-0-0-0---0-0-0---------------0-----------------------------|
 
 
|-----------------------------------------------------------------------|
|-6/8--8/10--10/12---0^5^8-0^5^8-0^5^8-0^5^8-0^5^8-0^5^8-0^5^8-0^5^8----|
|-----------------------------------------------------------------------|
|-----------------------------------------------------------------------|
|-----------------------------------------------------------------------|
|-----------------------------------------------------------------------|
 
|-------------------------------------------------------------------------|
|-0^4^7-0^4^7-0^4^7-0^4^7-0^4^7-0^4^7-0^4^7-0^4^7-0^5^8-0^5^8-0^5^8-0^5^8-|
|-------------------------------------------------------------------------|
|-------------------------------------------------------------------------|
|-------------------------------------------------------------------------|
|-------------------------------------------------------------------------|
 
 
|------------------------------------------------------------------------|
|-0^7^10-0^7^10-0^5^8-0^5^8-0^4^7-0^4^7-0^4^7-0^4^7-0^4^7-0^4^7-0^4^7----|
|------------------------------------------------------------------------|
|------------------------------------------------------------------------|
|------------------------------------------------------------------------|
|------------------------------------------------------------------------|
 
 
|------------------------------|
|------(7)---------------------|
|--(7)-------------------------|
|------------(12)--------------|
|--------(12)---------(7)------|
|------------------(7)---------|
 
               Main Riff
|-------------------------------------------------------------------|
|-------------------------------------------------------------------|
|-------------------------------------------------------------------|
|-------------------------------------------------------------------|
|-------------5--------7-----------8----7---------------------------|
|-0--0--0--0--3--0--0--5--0--0--0--6----5---------------------------|
 
                 Pre Chorus
|-------------------------------------------------------------------|
|-------------------------------------------------------------------|
|-------------------------------------------------------------------|
|-----------7-------9---------10--9---------------------------------|
|--9-9-9-9--5--9-9--7--9-9-9--8---7---------------------------------|
|--7-7-7-7-----7-7-----7-7-7----------------------------------------|
 
             Chorus
|-------------------------------------------------------------------|
|-------------------------------------------------------------------|
|-------------------------------------------------------------------|
|-------------------------------------------------------------------|
|-------------5--------7-----------8----7---------------------------|
|-0--0--0--0--3--0--0--5--0--0--0--6----5---------------------------|
 
 
 
|----------------------------------------------------------|
|----------------------------------------------------------|
|----------------------------------------------------------|
|-9---7---5------------------------------------------------|
|-7---5---3-------------------5--------7-----------8----7--|
|-----------------0--0--0--0--3--0--0--5--0--0--0--6----5--|
 
 
|--------------------------------------------------------------------|
|--------------------------------------------------------------------|
|--------------------------------------------------------------------|
|-9---7---5-----9---7---5-----9---7---5------------------------------|
|-7---5---3-----7---5---3-----7---5---3-----7--9--10\7---------------|
|--------------------------------------------------------------------|
 
 
 
|------------------------------------------------------------------------|
|------------------------------------------------------------------------|
|------------------------------------------------------------------------|
|-2----------2----------2--------------7---2----------2----------2--5----|
|-0--0-0-0-0-0--0-0-0-0-0--0-0-0-0--5--5---0--0-0-0-0-0--0-0-0-0-0--3--5-|
|-----------------------------------3----------------------------------3-|
 
 
|--------------------------------------------------------------------|
|--------------------------------------------------------------------|
|------------------------------7------------------------------7--7---|
|------------------------------7------------------------------7--7---|
|------------------------------5------------------------------5--5---|
|-0--0-0-0-0--0-0-0-0--0-0-0-0---0--0-0-0-0--0-0-0-0--0-0-0-0--------|
 
 
 
|---------------------------------------------------------------------|
|---------------------------------------------------------------------|
|------------------------------7------------------------------7--7--7-|
|------------------------------7------------------------------7--7--7-|
|------------------------------5------------------------------5--5--5-|
|-0--0-0-0-0--0-0-0-0--0-0-0-0---0--0-0-0-0--0-0-0-0--0-0-0-0---------|
 
 
|------------------------------------------------------------------------|
|------------------------------------------------------------------------|
|------------------------------------------------------------------------|
|-2----------2----------2--------------7---2----------2----------2--5----|
|-0--0-0-0-0-0--0-0-0-0-0--0-0-0-0--5--5---0--0-0-0-0-0--0-0-0-0-0--3--5-|
|-----------------------------------3----------------------------------3-|
 
 
|------------------------------------------------------------------------|
|------------------------------------------------------------------------|
|------------------------------------------------------------------------|
|-2----------2----------2--------------7---2----------2----------2--5----|
|-0--0-0-0-0-0--0-0-0-0-0--0-0-0-0--5--5---0--0-0-0-0-0--0-0-0-0-0--3--5-|
|-----------------------------------3----------------------------------3-|
 
 
 
|-----------------------------|
|-----------------------------|
|-----------------------------|
|-----------------------------|
|-2------5--7-----------------|
|-0------3--5-----------------|
 
Guitar Solo
   B          p       B          H  P                 H  P
|-------7----------------11-12-11^12^11----11-12-14-11^12^11---11----------|
|-----------10^7-10-10^-----------------12-------------------12---12-11-10-|
|-9^-----------------------------------------------------------------------|
|--------------------------------------------------------------------------|
|--------------------------------------------------------------------------|
|--------------------------------------------------------------------------|
 
   S                P    p         P      P           P        B     p
|------7--10-9-7--10^7------7------------------------------------7-------|
|-7/10-----------------10^7---10-10^7-7-10^7---7-------------------10^7--|
|--------------------------------------------9---9-7-9^7---7-7-9^--------|
|--------------------------------------------------------9---------------|
|------------------------------------------------------------------------|
|------------------------------------------------------------------------|





My mother was a witch, she was burned alive
Thankless little bitch, for the tears I cried
Take her down now, dont want to see her face
All blistered and burnt, cant hide my disgrace

Twenty-seven, everyone was nice
Gotta see em make em pay the price
See their bodies out on the ice
Take my time

Am I evil? yes, I am
Am I evil? I am man, yes, I am

As I watched my mother die, I lost my head
Revenge now I sought, to break with my bread
Taking no chances, you come with me
Ill split you to the bone, help set you free

Twenty-seven, everyone was nice
Gotta see em, make em pay the price
See their bodies out on the ice
Take my time

Am I evil? yes, I am
Am I evil? I am man, yes, I am, ooh

On with the action now, Ill strip your pride
Ill spread your blood around, Ill see you ride
Your face is scarred with steel, wounds deep and neat
Like a double dozen before ya, smells so sweet

Am I evil? yes, I am
Am I evil? I am man

Ill make my residence, Ill watch your fire
You can come with me, sweet desire
My face is long forgot, my face not my own
Sweet and timely whore, take me home

Am I evil? yes, I am
Am I evil? I am man


My soul is longing for, await my heir
Sent to avenge my mother, sweep myself
My face is long forgot, my face not my own
Sweet and timely whore, take me home

Am I evil? yes, I am
Am I evil? I am man

Am I evil? yes, I fucking am
Am I evil? I am man, yeah





------------------

version 5




 
Gtr I (E A D G B E) - 'Lead'
Gtr II (E A D G B E) - 'Singing'
 
  Moderate Rock Q=120(8=s8)
 4/4
  Gtr I
                                   PM--|     PM--|       PM--------------|
  H.      E E    H.       Q    E E E E E E E E E E   E E E E E E E E E E E
|-------------|--------------|---------------------|-----------------------|
|-------------|--------------|---------------------|-----------------------|
|-9-------7-9-|-10-------12--|-9---------9---------|-9---------------------|
|-9-------7-9-|-10-------12--|-9---------9---------|-9---------------------|
|-7-------5-7-|--8-------10--|-7---------7---------|-7---------------------|
|-0-----------|--------------|-----0-0-0-----0-0-0-|-----0-0-0-0-0-0-0-0-0-|
 
 
      PM--|    PM--|
  E E E E E E  E E E   W..            W
|--------------------|------------||-----------|
|--------------------|------------||o----------|
|--------------------|------------||-----------|
|-9---------9--------|-9\---------||-----------|
|-7---------7--------|-7\---------||o-2--------|
|-----0-0-0----0-0-0-|------------||--0--------|
 
 
                          1.,2.
  +H     H      W          +H     H
|-------------|----------|--------------||
|-------------|----------|-------------o||
|-------------|----------|--------------||
|-------------|----------|--------------||
|-(2)----9----|-8--------|-(8)----3----o||
|-(0)----7----|-6--------|-(6)----1-----||
 
 
  3.
  H      H      W          +H     H      W          +H     H      W
|-------------|----------|-------------|----------|-------------|------|
|-------------|----------|-------------|----------|-------------|------|
|-3-----------|----------|-------------|----------|-------------|------|
|-3----/10----|-9--------|-(9)---------|----------|-------------|------|
|-1-----/8----|-7--------|-(7)----9----|-8--------|-(8)----3----|-2----|
|-------------|----------|--------7----|-6--------|-(6)----1----|-0----|
 
 
       PM--|                     PM--|     PM--|       PM--|
       |-3-|                     |-3-|     |-3-|       |-3-| |-3-| |-3-|
  +Q   E E E E E E E E E     E E E E E E E E E E   E E E E E E E E E E E   3x
|------------------------||----------------------|-------------------------||
|------------------------||o---------------------|------------------------o||
|------------7-7-7-7-7-7-||--9---------9---------|-9---------7-7-7-7-7-7---||
|------------7-7-7-7-7-7-||--9---------9---------|-9---------7-7-7-7-7-7---||
|-(2)--------5-5-5-5-5-5-||o-7---------7---------|-7---------5-5-5-5-5-5--o||
|-(0)--0-0-0-------------||------0-0-0-----0-0-0-|-----0-0-0---------------||
 
 
        ~       ~     ~
  Q  Q  Q  Q    Q  Q  Q  Q    Q  Q  S Q..     E S  Q   S  H
|-------------|-------------|---------------|------------------|
|-------------|----------6--|-5s=6--6s8-----|---8s10--10s12----|
|-------------|----4--3-----|---------------|------------------|
|----------3--|-2-----------|---------------|------------------|
|----2--1-----|-------------|---------------|------------------|
|-0-----------|-------------|---------------|------------------|
 
 
  |-3-| |-3-| |-3-| |-3-|   |-3-| |-3-| |-3-| |-3-|
  S S S S S S S S S S S S   S S S S S S S S S S S S
|-------------------------|-------------------------|
|-0h5h8-0h5h8-0h5h8-0h5h8-|-0h5h8-0h5h8-0h5h8-0h5h8-|
|-------------------------|-------------------------|
|-------------------------|-------------------------|
|-------------------------|-------------------------|
|-------------------------|-------------------------|
 
 
  |-3-| |-3-| |-3-| |-3-|   |-3-| |-3-| |-3-| |-3-|
  S S S S S S S S S S S S   S S S S S S S S S S S S
|-------------------------|----------------------------|
|-0h4h7-0h4h7-0h4h7-0h4h7-|-0h4h7-0h4h7-0h4h7-0h4h7----|
|-------------------------|----------------------------|
|-------------------------|----------------------------|
|-------------------------|----------------------------|
|-------------------------|----------------------------|
 
 
  |-3-| |-3-| |-3-| |-3-|   |-3--| |-3--| |-3-| |-3-|
  S S S S S S S S S S S S   S S  S S S  S S S S S S S
|-------------------------|---------------------------|
|-0h5h8-0h5h8-0h5h8-0h5h8-|-0h7h10-0h7h10-0h5h8-0h5h8-|
|-------------------------|---------------------------|
|-------------------------|---------------------------|
|-------------------------|---------------------------|
|-------------------------|---------------------------|
 
 
  |-3-| |-3-| |-3-| |-3-|
  S S S S S S S S S S S S
|--------------------------|
|-0h4h7-0h4h7-0h4h7-0h4h7--|
|--------------------------|
|--------------------------|
|--------------------------|
|--------------------------|
 
 
                           Moderate Rock Q=120
  |-3-| |-3-| |-3-|
  S S S S S S S S S +S     +H     +Q.     E
|------------------------|-------------------|
|-0h4h7-0h4h7-0h4h7-(7)--|-(7)----(7)--------|
|------------------------|-------------------|
|------------------------|--------------<12>-|
|------------------------|-------------------|
|------------------------|-------------------|
 
 
 (8=s8)
                           3/4         2/4
    Q.     E    Q.     E      H.          +H
|-------------------------|-----------|-----------||
|-------------------------|-----------|-----------||
|-<12>--------------------|-----------|-----------||
|-------------<12>--------|-----------|-----------||
|--------<12>-------------|-<12>------|-(<12>)----||
|--------------------<12>-|-----------|-----------||
 
 
    Fast Metal Q=150(8=s8)
   4/4
    PM----|   PM|     PM--|             PM----|   PM|     PM--|
    E E E E E E E E   E E E E +Q   Q    E E E E E E E E   E E E E +Q   Q    3x
||------------------|-----------------|-----------------|-------------------||
||o-----------------|-----------------|-----------------|------------------o||
||------------------|-----------------|-----------------|-------------------||
||------------------|-----------------|-----------------|-------------------||
||o---------5-----7-|-------8-(8)--7--|---------5-----7-|-------8-(8)--7---o||
||--0-0-0-0-3-0-0-5-|-0-0-0-6-(6)--5--|-0-0-0-0-3-0-0-5-|-0-0-0-6-(6)--5----||
 
 
    W          W          W          H    Q  E E
||-----------|----------|----------|--------------||
||o----------|----------|----------|-----------5--||
||-----------|----------|----------|--------------||
||-----------|----------|----------|--------------||
||o----------|----------|----------|--------------||
||-----------|----------|----------|--------------||
 
 
  Gtr II
  E E E E Q   Q     H        Q   E E   E E S E.   +H          W
|-----------------|------------------|----------------------|-----------------|
|-8-5-5-5-5-------|------------------|-5-5------------------|-----------------|
|-----------------|--------------7-4-|-----9s7----(7)-------|-----------------|
|-----------------|------------------|----------------------|-----------------|
|-----------------|------------------|----------------------|-----------------|
|-----------------|------------------|----------------------|-----------------|
|
| Gtr I
| PM----|   PM|     PM--|              PM-------|     PM|     PM--|
| E E E E E E E E   E E E E +Q   Q     E E E    E  E  E E E   E E E E +Q   Q
|-----------------|------------------|----------------------|-----------------|
|-----------------|------------------|----------------------|-----------------|
|-----------------|------------------|----------------------|-----------------|
|-----------------|------------------|----------------------|-----------------|
|---------5-----7-|-------8-(8)--7---|-------------5------7-|-------8-(8)--7--|
|-0-0-0-0-3-0-0-5-|-0-0-0-6-(6)--5---|-0-0-0----0--3--0-0-5-|-0-0-0-6-(6)--5--|
 
 
  E E E E Q   Q     H        Q   E E   E Q   E H         +E  E Q    H
|-----------------|------------------|-----------------|-------------------|
|-5-5-5---5-------|------------------|-5-5---5---------|-------------------|
|-------8---------|--------------7-4-|---------7-------|-(7)---------------|
|-----------------|------------------|-----------------|-------------------|
|-----------------|------------------|-----------------|-------------------|
|-----------------|------------------|-----------------|-------------------|
|
| PM----|   PM|     PM--|              PM----|   PM|      PM---|
| E E E E E E E E   E E E E +Q   Q     E E E E E E E E    E  E E E +Q   Q
|-----------------|------------------|-----------------|-------------------|
|-----------------|------------------|-----------------|-------------------|
|-----------------|------------------|-----------------|-------------------|
|-----------------|------------------|-----------------|-------------------|
|---------5-----7-|-------8-(8)--7---|---------5-----7-|---------8-(8)--7--|
|-0-0-0-0-3-0-0-5-|-0-0-0-6-(6)--5---|-0-0-0-0-3-0-0-5-|--0--0-0-6-(6)--5--|
 
 
  E E Q   H          H        E  E E E   E E E E +H          H        Q   E E
|------------------|-------------------|-------------------|------------------|
|-8-5-5---5\-------|-------------------|-5-5-5-------------|------------------|
|------------------|-------------7-6-4-|-------7-(7)-------|----------------7-|
|------------------|-------------------|-------------------|------------------|
|------------------|-------------------|-------------------|------------------|
|------------------|-------------------|-------------------|------------------|
|
| PM----|    PM|     PM--|               PM----|     PM|     PM--|
| E E E E E  E E E   E E E E +Q    Q     E E E E  E  E E E   E E E E +Q   Q
|------------------|-------------------|-------------------|------------------|
|------------------|-------------------|-------------------|------------------|
|------------------|-------------------|-------------------|------------------|
|------------------|-------------------|-------------------|------------------|
|---------5------7-|-------8-(8)---7---|----------5------7-|-------8-(8)--7---|
|-0-0-0-0-3--0-0-5-|-0-0-0-6-(6)---5---|-0-0-0-0--3--0-0-5-|-0-0-0-6-(6)--5---|
 
 
  E Q   E H          H        Q   E E
|------------------|------------------|
|-5-5---5-5\-------|------------------|
|------------------|----------------6-|
|------------------|------------------|
|------------------|------------------|
|------------------|------------------|
|
| PM----|    PM|     PM--|
| E E E E E  E E E   E E E E +Q   Q
|------------------|------------------|
|------------------|------------------|
|------------------|------------------|
|------------------|------------------|
|---------5------7-|-------8-(8)--7---|
|-0-0-0-0-3--0-0-5-|-0-0-0-6-(6)--5---|
 
 
  E Q   E S E.   +Q      +Q    Q    H
|----------------------|-------------------|
|-5-5---5-5------------|-------------------|
|-----------7----(7)---|-(7)---------------|
|----------------------|-------------------|
|----------------------|-------------------|
|----------------------|-------------------|
|
| PM----|      PM|        PM---|
| E E E E E    E  E  E    E  E E E +Q   Q
|----------------------|-------------------|
|----------------------|-------------------|
|----------------------|-------------------|
|----------------------|-------------------|
|---------5----------7-|---------8-(8)--7--|
|-0-0-0-0-3----0--0--5-|--0--0-0-6-(6)--5--|
 
 
  Q   E E E E E E   E E E  E  +Q   Q    Q   E E E E E E   E E E  E  +Q   Q
|-----------------|-------------------|-----------------|-------------------|
|-----------5-5---|-5---6-------------|-----------5-5---|-5---6-------------|
|-----4-4-7-----7-|---7----7--(7)--4--|-----4-4-7-----7-|---7----7--(7)--4--|
|-----------------|-------------------|-----------------|-------------------|
|-----------------|-------------------|-----------------|-------------------|
|-----------------|-------------------|-----------------|-------------------|
|
| PM----|   PM|     PM--|               PM----|   PM|     PM--|
| E E E E E E E E   E E E  E  +Q   Q    E E E E E E E E   E E E  E  +Q   Q
|-----------------|-------------------|-----------------|-------------------|
|-----------------|-------------------|-----------------|-------------------|
|---------7-----9-|-------10-(10)--9--|---------7-----9-|-------10-(10)--9--|
|---------7-----9-|-------10-(10)--9--|---------7-----9-|-------10-(10)--9--|
|-----------------|-------------------|-----------------|-------------------|
|-7-7-7-7---7-7---|-7-7-7-------------|-7-7-7-7---7-7---|-7-7-7-------------|
 
 
  Q   E E E E E E   E Q    E  +Q   Q    Q   E E +E  Q   E   H         +Q   Q
|-----------------|-------------------|-------------------|-------------------||
|-----------5-5-5-|---6---------------|-------------------|-------------------||
|-----4-4-7-------|-7------7--(7)--4--|-------7-(7)-4---4-|-------------------||
|-----------------|-------------------|-------------------|-7---------(7)\----||
|-----------------|-------------------|-------------------|-------------------||
|-----------------|-------------------|-------------------|-------------------||
|
| PM----|   PM|     PM--|               PM----|     PM|     PM--|
| E E E E E E E E   E E E  E  +Q   Q    E E E E  E  E E E   E E E  E  +Q   Q
|-----------------|-------------------|-------------------|-------------------||
|-----------------|-------------------|-------------------|-------------------||
|---------7-----9-|-------10-(10)S=9--|----------7------9-|-------10-(10)S=9--||
|---------7-----9-|-------10-(10)S=9--|----------7------9-|-------10-(10)S=9--||
|-9-9-9-9---9-9---|-9-9-9-------------|-9-9-9-9-----9-9---|-9-9-9-------------||
|-7-7-7-7---7-7---|-7-7-7-------------|-7-7-7-7-----7-7---|-7-7-7-------------||
 
 
  H       E Q   E   +E  E Q   +H         H       E Q   E   +Q    Q    H
|-----------------|--------------------|-----------------|-------------------|
|---------8-8---8-|-(8)---5---(5)\-----|---------5-5---5-|-(5)---------------|
|-----------------|-----7--------------|-----------------|-------------------|
|-----------------|--------------------|-----------------|-------------------|
|-----------------|--------------------|-----------------|-------------------|
|-----------------|--------------------|-----------------|-------------------|
|
| PM----|   PM|      PM---|              PM----|   PM|      PM---|
| E E E E E E E E    E  E E E +Q    Q    E E E E E E E E    E  E E E +Q   Q
|-----------------|--------------------|-----------------|-------------------|
|-----------------|--------------------|-----------------|-------------------|
|-----------------|--------------------|-----------------|-------------------|
|-----------------|--------------------|-----------------|-------------------|
|---------5-----7-|---------8-(8)---7--|---------5-----7-|---------8-(8)--7--|
|-0-0-0-0-3-0-0-5-|--0--0-0-6-(6)---5--|-0-0-0-0-3-0-0-5-|--0--0-0-6-(6)--5--|
 
 
  H       E Q   E   +E  S S +H.             H       E Q   E
|-----------------|-----------------------|-----------------|
|---------8-8---8-|-(8)-5-----------------|---------5-5---5-|
|-----------------|-------7-(7)-----------|-----------------|
|-----------------|-----------------------|-----------------|
|-----------------|-----------------------|-----------------|
|-----------------|-----------------------|-----------------|
|
| PM----|   PM|      PM-----|               PM----|   PM|
| E E E E E E E E    E  E    E  E +Q   Q    E E E E E E E E
|-----------------|-----------------------|-----------------|
|-----------------|-----------------------|-----------------|
|-----------------|-----------------------|-----------------|
|-----------------|-----------------------|-----------------|
|---------5-----7-|-------------8-(8)--7--|---------5-----7-|
|-0-0-0-0-3-0-0-5-|--0--0----0--6-(6)--5--|-0-0-0-0-3-0-0-5-|
 
 
  1.                    2.
  Q   E E +E  E Q       Q   E E +E  E E E    +H        H          H     Q  Q
|--------------------||-------------------||-------------------|--------------|
|-------6-(6)-6-5\--o||-------5-(5)-8-5---||-------------------|--------6-----|
|-7------------------||-7---------------7-||-(7)---------------|-----------7--|
|--------------------||-------------------||-------------------|--------------|
|-------------------o||-------------------||-------------------|--------------|
|--------------------||-------------------||-------------------|--------------|
|
| PM--|                 PM--|
| E E E E +Q    Q       E E E E +Q    Q       Q   E E +E  E Q    +W
|--------------------||-------------------||-------------------|--------------|
|-------------------o||-------------------||-------------------|--------------|
|--------------------||-------------------||-------------------|--------------|
|--------------------||-------------------||--9-----7-(7)---5--|-(5)----------|
|-------8-(8)---7---o||-------8-(8)---7---||--7-----5-(5)---3--|-(3)----------|
|-0-0-0-6-(6)---5----||-0-0-0-6-(6)---5---||------0-------0----|--------------|
 
 
  +Q    Q   H         W                   W                  W      3x
|-------------------|-----------------||------------------|---------||
|-------------------|-----------------||o-----------------|--------o||
|-(7)---------------|-----------------||------------------|---------||
|-------------------|-----------------||------------------|---------||
|-------------------|-----------------||o-----------------|--------o||
|-------------------|-----------------||------------------|---------||
|
|  PM-----|   PM|     PM--|
|  E  E E E E E E E   E E E E +Q   Q      Q  E E +E  E Q    +W      3x
|-------------------|-----------------||------------------|---------||
|-------------------|-----------------||o-----------------|--------o||
|-------------------|-----------------||------------------|---------||
|-------------------|-----------------||--9----7-(7)---5--|-(5)-----||
|-----------5-----7-|-------8-(8)--7--||o-7----5-(5)---3--|-(3)----o||
|--0--0-0-0-3-0-0-5-|-0-0-0-6-(6)--5--||-----0-------0----|---------||
 
 
  Q  E E +Q    Q     +E   E H.        +W           +W
|-----------------|-----------------|------------|--------|
|-----------------|-----------------|------------|--------|
|-----------------|-----------------|------------|--------|
|-----------------|-----------------|------------|--------|
|-7----9-(9)--10--|-(10)-10S7-------|-(7)--------|-(7)----|
|-----------------|-----------------|------------|--------|
 
 
    $
        PM--|     PM--|       PM--|
      |--3--|   |--3--|     |--3--|
    Q W E E E Q Q E E E   Q Q E E E Q  Q
||----------------------|-----------------|
||o---------------------|-----------------|
||----------------------|-----------------|
||----------------------|--------------7--|
||o-7---------7---------|-7---------5--5--|
||--5-5-5-5-5-5-5-5-5-5-|-5-5-5-5-5-3-----|
 
 
      PM--|     PM--|       PM--|
    |--3--|   |--3--|     |--3--|
  Q Q E E E Q Q E E E   Q Q E E E Q  Q
|---------------------|--------------------||
|---------------------|-------------------o||
|---------------------|--------------------||
|---------------------|-----------5--------||
|-7---------7---------|-7---------3--5----o||
|-5-5-5-5-5-5-5-5-5-5-|-5-5-5-5-5----3-----||
 
 
   Bridge
    Gtr II
    E Q       E   +E  Q       E     +E  Q       E   +H
||--------------------------------|--------------------------|
||o---8-------8---(8)-8-------8---|-(8)-8-------8---(8)------|
||--------------------------------|--------------------------|
||--------------------------------|--------------------------|
||o-------------------------------|--------------------------|
||--------------------------------|--------------------------|
|
|   Gtr I
|   PM----------------------------------------------|
|         |--3--|  |-3--| |--3--|    |-3--| |--3--|
|   Q   E E E   E  Q    E E E   E    Q    E E E   E  E  Q.
||--------------------------------|--------------------------|
||o-------------------------------|--------------------------|
||--------------------------------|--------------------------|
||--------------------------------|---------------------7----|
||o-2-----------------------------|---------------------5----|
||--0---0-0-0---0--0----0-0-0---0-|--0----0-0-0---0--0-------|
 
 
  E Q       E   +E  Q       E     +H          H
|-------------------------------|----------------------|
|---5-------5---(5)-5-------5---|-(5)------------------|
|-------------------------------|----------------------|
|-------------------------------|----------------------|
|-------------------------------|----------------------|
|-------------------------------|----------------------|
|
| PM------------------------------------------|
|                                  |3-| |-3-| |-3-|
| Q   E E E   E  Q    E E E   E    Q  E E E E Q Q Q
|-------------------------------|----------------------|
|-------------------------------|----------------------|
|-------------------------------|----------------------|
|-------------------------------|---------------7-7----|
|-2---2-2-2---2--2----2-2-2---2-|--2--2-2-2-2-2-5-5----|
|-0---0-0-0---0--0----0-0-0---0-|--0--0-0-0-0-0--------|
 
 
  E Q       E   +E  Q       E     E Q       E   +Q     Q
|-------------------------------|-------------------------|
|---8-------8---(8)-8-------8---|-7-5-------7---(7)-------|
|-------------------------------|-------------------------|
|-------------------------------|-------------------------|
|-------------------------------|-------------------------|
|-------------------------------|-------------------------|
|
| PM--------------------------------------------|
| |-3-| |--3--|  |-3--| |--3--|   |-3-| |--3--|
| Q   E E E   E  Q    E E E   E   Q   E E E   E  E  Q.
|-------------------------------|-------------------------|
|-------------------------------|-------------------------|
|-------------------------------|-------------------------|
|-------------------------------|-------------------7-----|
|-2---2-2-2---2--2----2-2-2---2-|-2---2-2-2---2--2--5-----|
|-0---0-0-0---0--0----0-0-0---0-|-0---0-0-0---0--0--------|
 
 
  E Q       E   +E  Q       E     +E  S   S Q     +E  E   Q
|-------------------------------|-----------------------------|
|---5-------5---(5)-5-------5---|-(5)-------5-----(5)---------|
|-------------------------------|---------4-------------------|
|-------------------------------|-----7-----------------------|
|-------------------------------|-----------------------------|
|-------------------------------|-----------------------------|
|
| PM----------------------------------------------|
| |-3-| |--3--|  |-3--| |--3--|    |-3--|   |-3-|  |---3----|
| Q   E E E   E  Q    E E E   E    Q    E   E E E  Q    Q   Q
|-------------------------------|-----------------------------|
|-------------------------------|-----------------------------|
|-------------------------------|-----------------------------|
|-------------------------------|-----------------------7---7-|
|-2---2-2-2---2--2----2-2-2---2-|--2----2---2-2-2--2----5---5-|
|-0---0-0-0---0--0----0-0-0---0-|--0----0---0-0-0--0----------|
 
 
  E Q       E   +E  Q       E     +E  Q       E   +Q     Q
|-------------------------------|---------------------------|
|---5-------5---(5)-5-------5---|-(5)-5-------5---(5)-------|
|-------------------------------|---------------------------|
|-------------------------------|---------------------------|
|-------------------------------|---------------------------|
|-------------------------------|---------------------------|
|
| PM----------------------------------------------|
| |-3-| |--3--|  |-3--| |--3--|    |-3--| |--3--|
| Q   E E E   E  Q    E E E   E    Q    E E E   E  E  Q.
|-------------------------------|---------------------------|
|-------------------------------|---------------------------|
|-------------------------------|---------------------------|
|-------------------------------|---------------------7-----|
|-2---2-2-2---2--2----2-2-2---2-|--2----2-2-2---2--2--5-----|
|-0---0-0-0---0--0----0-0-0---0-|--0----0-0-0---0--0--------|
 
 
  E Q       E   +E  Q       E     +E  E   Q     H
|-------------------------------|------------------------|
|---5-------5---(5)-5-------5---|-(5)--------------------|
|-------------------------------|------------------------|
|-------------------------------|------------------------|
|-------------------------------|------------------------|
|-------------------------------|------------------------|
|
| PM--------------------------------------------|
|       |--3--|  |-3--| |--3--|    |-3--| |-3-| |-3-|
| Q   E E E   E  Q    E E E   E    Q    E E E E Q Q Q
|-------------------------------|------------------------|
|-------------------------------|------------------------|
|-------------------------------|------------------------|
|-------------------------------|-----------------7-7----|
|-2---2-2-2---2--2----2-2-2---2-|--2----2-2-2-2-2-5-5----|
|-0---0-0-0---0--0----0-0-0---0-|--0----0-0-0-0-0--------|
 
 
  |--3--|   |--3--|      |--3---|   |-3--|
  Q Q   Q   Q Q   Q     +Q  Q   Q   Q    H
|---------------------|---------------------|
|---8---8---8-8---8---|-(8)-8---8---8----8--|
|---------------------|---------------------|
|---------------------|---------------------|
|---------------------|---------------------|
|---------------------|---------------------|
|
| PM--------------------------------|
| |3| |-3-| |3| |-3-|    |3-| |-3-|
| Q E E E E Q E E E E    Q  E E E E E Q.
|---------------------|---------------------|
|---------------------|---------------------|
|---------------------|---------------------|
|---------------------|---------------7-----|
|-2-2-2-2-2-2-2-2-2-2-|--2--2-2-2-2-2-5-----|
|-0-0-0-0-0-0-0-0-0-0-|--0--0-0-0-0-0-------|
 
 
  H         E Q       E     +H.             Q
|-------------------------|----------------------||
|-----------5-5-------5---|-(5)------------------||
|-------------------------|----------------------||
|-------------------------|----------------------||
|-------------------------|----------------------||
|-------------------------|----------------------||
|
| PM------------------------------------|
| |3| |-3-| |-3-| |--3--|    |3-| |-3-| |--3--|
| Q E E E E Q   E E E   E    Q  E E E E Q Q   Q
|-------------------------|----------------------||
|-------------------------|----------------------||
|-------------------------|----------------------||
|-------------------------|---------------7---7--||
|-2-2-2-2-2-2---2-2-2---2-|--2--2-2-2-2-2-5---5--||
|-0-0-0-0-0-0---0-0-0---0-|--0--0-0-0-0-0--------||
 
 
  H        E Q     E     +E  E Q     +Q   Q
|----------------------|---------------------|
|----------8-8-----8---|-(8)-5-8-----(8)-----|
|----------------------|---------------------|
|----------------------|---------------------|
|----------------------|---------------------|
|----------------------|---------------------|
|
|    PM--|     PM----|         PM--|
|    |-3-|     |--3--|         |-3-|
| Q  E E E Q   E E   E    Q    E E E  Q   Q
|----------------------|---------------------|
|----------------------|---------------------|
|----------------------|---------------------|
|----------------------|------------------7--|
|-7--------7-----------|--7-----------5---5--|
|-5--5-5-5-5---5-5---5-|--5----5-5-5--3------|
 
 
  H        E Q     E     H.           Q
|----------------------|------------------|
|----------8-8-----8s==|=5----------------|
|----------------------|------------------|
|----------------------|------------------|
|----------------------|------------------|
|----------------------|------------------|
|
|    PM--|     PM----|       PM--|
|    |-3-|     |--3--|       |-3-|
| Q  E E E Q   E E   E   Q   E E E Q  Q
|----------------------|------------------|
|----------------------|------------------|
|----------------------|------------------|
|----------------------|-----------5------|
|-7--------7-----------|-7---------3--5---|
|-5--5-5-5-5---5-5---5-|-5---5-5-5----3---|
 
 
  H        E Q     E     +E  E Q     +Q   Q
|----------------------|---------------------|
|----------8-8-----8---|-(8)-5-8-----(8)-----|
|----------------------|---------------------|
|----------------------|---------------------|
|----------------------|---------------------|
|----------------------|---------------------|
|
|    PM--|     PM----|         PM--|
|    |-3-|     |--3--|         |-3-|
| Q  E E E Q   E E   E    Q    E E E  Q   Q
|----------------------|---------------------|
|----------------------|---------------------|
|----------------------|---------------------|
|----------------------|------------------7--|
|-7--------7-----------|--7-----------5---5--|
|-5--5-5-5-5---5-5---5-|--5----5-5-5--3------|
 
 
                                  To Coda
  Q  E   E   E E Q       +H.           Q
|----------------------|--------------------||
|--------5-------5-----|-(5)---------------o||
|------------7-7-------|--------------------||
|----------------------|--------------------||
|----------------------|-------------------o||
|----------------------|--------------------||
|
|    PM----|     PM--|        PM--|
|    |--3--|     |-3-|        |-3-|
| Q  E E   E Q   E E E    Q   E E E Q  Q
|----------------------|--------------------||
|----------------------|-------------------o||
|----------------------|--------------------||
|----------------------|------------5-------||
|-7----------7---------|--7---------3--5---o||
|-5--5-5---5-5---5-5-5-|--5---5-5-5----3----||
 
 
                                       Guitar Solo
  W           W           H    Q  Q     W
|----------|------------|------------||-----------------------|
|----------|------------|---------8--||-----------------------|
|----------|------------|------------||-----------------------|
|----------|------------|------------||-----------------------|
|----------|------------|------------||-----------------------|
|----------|------------|------------||-----------------------|
|
|                                                |3-|  |-3--|
| W          +W           H    H        H       +Q  E  E E  E
|----------|------------|------------||-------------7---------|
|----------|------------|------------||---------------10p7-10-|
|----------|------------|------------||-9b11----(9)-----------|
|----------|------------|------------||-----------------------|
|-2--------|-(2)--------|-5----7-----||-----------------------|
|-0--------|-(0)--------|-3----5-----||-----------------------|
 
 
  Gtr I
                      |3-|
   Q      Q.    +E   +Q  E  E  E
|--------------------------11-12-|
|-10b12rs12----(12)r(12)-0-------|
|------------------------0-------|
|--------------------------------|
|--------------------------------|
|--------------------------------|
 
 
                                               ~~
   |---3----|  |--3--|  |---3----|  |--3--|
   S  S  E  E  E  E  E  S  S  E  E  E  E  E    H     +Q   E  E
|-11h12p11----11-12-14-11h12p11----11-------|------------------|
|----------12-------------------12----12-11-|-10----(10)--7s10-|
|-------------------------------------------|------------------|
|-------------------------------------------|------------------|
|-------------------------------------------|------------------|
|-------------------------------------------|------------------|
 
 
   |--3--| |----3----|  |-3-|    |-3-| |-3-| |-3-| |3|
   Q Q E E E  S S S  S  S S Q    E E E E E E E E E Q E
|-10-9-7-9p7------7-----------|------------------------|
|------------10p7---10-10p7-7-|-10p7---7---------------|
|-----------------------------|------9---9-7-9p7---7-7-|
|-----------------------------|------------------9-----|
|-----------------------------|------------------------|
|-----------------------------|------------------------|
 
 
        |3-|  |-3-| |--3--| |-3-|
  a    +Q  E  E E E S S E E E E E
|----------7----------------------|
|------------10p7-----------------|
|-9b11r(9)--------9-7h9p7---7-7-7-|
|-------------------------9-------|
|---------------------------------|
|---------------------------------|
 
 
  |--3---|      |3-|         |3-|  |-3-| |--3--| |-3-|
  Q Q   +Q  Q  +Q  E   E    +Q  E  E E E S S E E E E E
|--------------------|----------7----------------------|
|-9------------------|------------10p7-----------------|
|-9-7b9r(7)--------7-|-9b11r(9)--------9-7h9p7---7-7-7-|
|-----------9--(9)---|-------------------------9-------|
|--------------------|---------------------------------|
|--------------------|---------------------------------|
 
 
        |3-|  |-3-| |--3--| |-3-|
  a    +Q  E  E E E S S E E E E E
|----------7-----------------------|
|------------10p7------------------|
|-9b11r(9)--------9-7h9p7---7-7-7--|
|-------------------------9--------|
|----------------------------------|
|----------------------------------|
 
 
        |3-|  |-3-| |--3--|       |--3--|
  E    +Q  E  E E E S S E E Q     Q  Q  Q  a      +H
|----------7-------------------|-19-20-22-22pb24r(22)----|
|------------10p7--------------|-------------------------|
|-9b11-(9)--------9-7h9p7---7--|-------------------------|
|-------------------------9----|-------------------------|
|------------------------------|-------------------------|
|------------------------------|-------------------------|
 
 
   |--3--|  |--3--|  |--3--|  |--3--|
   E  E  E  E  E  E  E  E  E  E  E  E
|-15p12-14p12----12-15p12-14p12----12-|
|-------------14----------------14----|
|-------------------------------------|
|-------------------------------------|
|-------------------------------------|
|-------------------------------------|
 
 
   |--3--|  |--3--|  |--3--|  |--3--|    |--3--|  |--3--|    |--3--|      |3|
   E  E  E  E  E  E  E  E  E  E  E  E    Q  Q  Q  Q  Q  Q    Q  Q  Q  Q   Q E
|-15p12-14p12----12-15p12-14p12----12-|-15-14-12----12----|-------------------|
|-------------14----------------14----|----------15----15-|-14-12-14----------|
|-------------------------------------|-------------------|----------12--12S7-|
|-------------------------------------|-------------------|-------------------|
|-------------------------------------|-------------------|-------------------|
|-------------------------------------|-------------------|-------------------|
 
 
        |3-|  |-3-| |-3-|  |-3-|
  a    +Q  E  E E E E E E  E E E
|----------7-10p7---9p7---10p7---|
|-----------------7-----7------7-|
|-9b11r(9)-----------------------|
|--------------------------------|
|--------------------------------|
|--------------------------------|
 
 
   |-3-|  |-3-| |-3-|  |-3-|    |-3-|  |-3--|
   E E E  E E E E E E  E E E    Q Q Q  Q Q  Q
|-12p7---10p7---9p7---10p7---|-10-9-7----7-----|
|------7------7-----7------7-|--------10---10--|
|----------------------------|-----------------|
|----------------------------|-----------------|
|----------------------------|-----------------|
|----------------------------|-----------------|
 
 
  |-3-|            |-3-| |-3-| |-3-| |-3-|   |-3-| |-3-| |-3-| |-3-|
  Q Q Q Q  +Q      E E E E E E E E E E E E   E E E E E E E E E E E E
|----------------|-------------------------|-------------------------|
|-9-7-9----------|-0h4h7-0h4h7-0h4h7-0h4h7-|-0h5h8-0h5h8-0h5h8-0h5h8-|
|-------7--(7)\--|-------------------------|-------------------------|
|----------------|-------------------------|-------------------------|
|----------------|-------------------------|-------------------------|
|----------------|-------------------------|-------------------------|
 
 
  |-3-| |-3-| |-3-| |-3-|   |-3-| |-3-| |-3-| |-3-|   |-3-| |-3-| |-3-| |-3-|
  E E E E E E E E E E E E   E E E E E E E E E E E E   E E E E E E E E E E E E
|-------------------------|-0h4h7-0h4h7-0h4h7-0h4h7-|-0h5h8-0h5h8-0h5h8-0h5h8-|
|-0h4h7-0h4h7-0h4h7-0h4h7-|-------------------------|-------------------------|
|-------------------------|-------------------------|-------------------------|
|-------------------------|-------------------------|-------------------------|
|-------------------------|-------------------------|-------------------------|
|-------------------------|-------------------------|-------------------------|
 
 
                                 T      T      T      T
  |-3-| |-3-|                    |-3-|  |-3-|  |-3-|  |-3-|
  E E E E E E S S S S S S S S    E E E  E E E  E E E  E E E
|-0h4h7-0h4h7-0h4h7p0-4h7-5h8-|-12p8p5-12p8p5-12p8p5-12p8p5-|
|-----------------------------|-----------------------------|
|-----------------------------|-----------------------------|
|-----------------------------|-----------------------------|
|-----------------------------|-----------------------------|
|-----------------------------|-----------------------------|
 
 
   T      T      T      T
   |-3-|  |-3-|  |-3-|  |-3-|
   E E E  E E E  E E E  E E E
|-12p8p5-12p8p5-12p8p5-12p8p5--|
|------------------------------|
|------------------------------|
|------------------------------|
|------------------------------|
|------------------------------|
 
 
   T      T      T      T
   |-3-|  |-3-|  |-3-|  |-3-|
   E E E  E E E  E E E  E E E
|-13p8p5-13p8p5-13p8p5-13p8p5-|
|-----------------------------|
|-----------------------------|
|-----------------------------|
|-----------------------------|
|-----------------------------|
 
 
   T      T      T      T        T      T      T      T
   |-3-|  |-3-|  |-3-|  |-3-|    |-3-|  |-3-|  |-3-|  |-3-|
   E E E  E E E  E E E  E E E    E E E  E E E  E E E  E E E
|-13p8p5-13p8p5-13p8p5-13p8p5-|-13p9p6-13p9p6-13p9p6-13p9p6-|
|-----------------------------|-----------------------------|
|-----------------------------|-----------------------------|
|-----------------------------|-----------------------------|
|-----------------------------|-----------------------------|
|-----------------------------|-----------------------------|
 
 
   T      T      T      T
   |-3-|  |-3-|  |-3-|  |-3-|
   E E E  E E E  E E E  E E E
|-13p9p6-13p9p6-13p9p6-13p9p6-|
|-----------------------------|
|-----------------------------|
|-----------------------------|
|-----------------------------|
|-----------------------------|
 
 
   T      T      T      T        T      T      T      T
   |-3-|  |-3-|  |-3-|  |-3-|    |-3-|  |-3-|  |-3-|  |-3-|
   E E E  E E E  E E E  E E E    E E E  E E E  E E E  E E E
|-14p9p6-14p9p6-14p9p6-14p9p6-|-14p9p6-14p9p6-14p9p6-14p9p6-|
|-----------------------------|-----------------------------|
|-----------------------------|-----------------------------|
|-----------------------------|-----------------------------|
|-----------------------------|-----------------------------|
|-----------------------------|-----------------------------|
 
 
   T       T       T       T
   |-3--|  |-3--|  |-3--|  |-3--|
   E  E E  E  E E  E  E E  E  E E
|-14p10p7-14p10p7-14p10p7-14p10p7-|
|---------------------------------|
|---------------------------------|
|---------------------------------|
|---------------------------------|
|---------------------------------|
 
 
   T       T       T       T
   |-3--|  |-3--|  |-3--|  |3|   |-3-| |-3-| |-3-| |-3-|
   E  E E  E  E E  E  E E  Q E   E E E E E E E E E E E E
|-14p10p7-14p10p7-14p10p7-14S7-|-0h4h7-------0h4h7--------|
|------------------------------|-------0h4h7-------0h4h7--|
|------------------------------|--------------------------|
|------------------------------|--------------------------|
|------------------------------|--------------------------|
|------------------------------|--------------------------|
 
 
  |-3-| |-3-| |-3-| |-3-|   |-3-| |-3-| |-3-| |-3-|   |-3-| |-3-| |-3-| |-3-|
  E E E E E E E E E E E E   E E E E E E E E E E E E   E E E E E E E E E E E E
|-0h4h7-------0h4h7-------|-------------------------|-------------------------|
|-------0h4h7-------0h4h7-|-0h4h7-------0h4h7-------|-0h4h7-------0h4h7-------|
|-------------------------|-------0h4h7-------0h4h7-|-------0h4h7-------0h4h7-|
|-------------------------|-------------------------|-------------------------|
|-------------------------|-------------------------|-------------------------|
|-------------------------|-------------------------|-------------------------|
 
 
  |-3-| |-3-| |-3-| |-3-|   |-3-| |-3-| |-3-| |-3-|   |-3-| |-3-| |-3-| |-3-|
  E E E E E E E E E E E E   E E E E E E E E E E E E   E E E E E E E E E E E E
|-------------------------|-------------------------|-------------------------|
|-------------------------|-------------------------|-------------------------|
|-0h4h7-------0h4h7-------|-0h4h7-------0h4h7-------|-------------------------|
|-------0h4h7-------0h4h7-|-------0h4h7-------0h4h7-|-0h4h7-------0h4h7-------|
|-------------------------|-------------------------|-------0h4h7-------0h4h7-|
|-------------------------|-------------------------|-------------------------|
 
 
   TP   TP    TP  TP
   Q   +Q    +E   S  S  S  S  S  S    S  S  S  S  S  S  S  S  S  S  S  S  S  S  S  S
|----------------------------------|-------------------------------------------------|
|--------------------7-10-10-12-12-|-15-12-12-12-17-12-12-12-15-12-12-12-17-12-12-12-|
|----------------------------------|-------------------------------------------------|
|----------------------------------|-------------------------------------------------|
|----------------------------------|-------------------------------------------------|
|-12--(12)--(12)\-7\---------------|-------------------------------------------------|
 
 
                           |--3--|
   S  S  S  S  S  S  S  S  S  S  S  S  S  S  S  S  S
|----------------------------------------------------|
|-15-12-12-12-17-12-12-12-15p14p12-12-12-17p12-12-12-|
|----------------------------------------------------|
|----------------------------------------------------|
|----------------------------------------------------|
|----------------------------------------------------|
 
 
   |--3--|       |--3--|  |------6-------|  |-3-|
   S  S  S  S  S E  E  E  S  S  S  S  S  S  E E E
|-------------------------------------------------|
|-15p14p12-12-12---12-10-13-11-10-13-11-10------7-|
|------------------------------------------10-9-7-|
|-------------------------------------------------|
|-------------------------------------------------|
|-------------------------------------------------|
 
 
             ~~~
   |3-| |3|  |3-| |-3--|                 |-3-| |-3-|
  +Q  E Q E +Q  E E E  E    a      H     E E E E E E
|------------------------|-----------------------------|
|-(7)-------------7-7-10-|-10b12==10----10p7---7-------|
|-(7)-9-7-7-(7)-7--------|-------------------9---9-7---|
|------------------------|-----------------------------|
|------------------------|-----------------------------|
|------------------------|-----------------------------|
 
 
                                                             D.S. al Coda
  |-3-| |3|  |----3----|
  E E E Q E  Q  a      E  +Q      +Q   E E a E S S E  S S    E S  S Q  H
|--------------10b12==10-(10)r=|=(10)--9-7-7h9p7-9p7------|------------------||
|------------------------------|---------------------10p8-|-10p8-10-8--------||
|-9p7---7-7/-------------------|--------------------------|------------7-----||
|-----9------------------------|--------------------------|------------------||
|------------------------------|--------------------------|------------------||
|------------------------------|--------------------------|------------------||
 
 
  &
  Gtr II
  H                 E Q         E         +E  E   Q           +Q   Q
|---------------------------------------|-----------------------------|
|-------------------8-8---------8-------|-(8)-5---8-----------(8)-----|
|---------------------------------------|-----------------------------|
|---------------------------------------|-----------------------------|
|---------------------------------------|-----------------------------|
|---------------------------------------|-----------------------------|
|
| Gtr I
|       PM------|       PM--|       PM            PM------|
|                                             |-----3-----|
| Q T.. T.. T.. T.. Q   T.. T.. T.. T..    Q  S.. S.. S.. S..  Q   Q
|---------------------------------------|-----------------------------|
|---------------------------------------|-----------------------------|
|---------------------------------------|-----------------------------|
|---------------------------------------|--------------------------7--|
|-7-----------------7-------------------|--7-------------------5---5--|
|-5-5---5---5---5---5---5---5---5---5---|--5--5---5---5---5----3------|
 
 
  Q     E       E     +E  Q           E
|--------------------------------------------|
|---------------8-----(8)-7-----------8------|
|--------------------------------------------|
|--------------------------------------------|
|--------------------------------------------|
|--------------------------------------------|
|
|       PM--------|           PM--------|
| Q T.. T.. T..   T..  Q  T.. T.. T..   T..
|--------------------------------------------|
|--------------------------------------------|
|--------------------------------------------|
|--------------------------------------------|
|-7--------------------7---------------------|
|-5-5---5---5-----5----5--5---5---5-----5----|
 
 
  Q  Q       +H         H          E Q     E     +E  E Q       +Q    Q
|---------------------|------------------------|-----------------------|
|-8--8-------(8)\-----|------------8-8-----8---|-(8)-5-8-------(8)\----|
|---------------------|------------------------|-----------------------|
|---------------------|------------------------|-----------------------|
|---------------------|------------------------|-----------------------|
|---------------------|------------------------|-----------------------|
|
|    PM  PM|               PM  PM|     PM|   PM        PM  PM|
|    |--3--|               |--3--|     |--3--|         |--3--|
| Q  E E E E  Q    Q    Q  E E E E Q   E E E E    Q    E E E E  Q    Q
|---------------------|------------------------|-----------------------|
|---------------------|------------------------|-----------------------|
|---------------------|------------------------|-----------------------|
|-------------5-------|------------------------|---------------------7-|
|-7-----------3----5--|-7----------7-----------|--7-------------5----5-|
|-5--5-5-5-5-------3--|-5--5-5-5-5-5---5-5-5-5-|--5----5-5-5-5--3------|
 
 
  Q  E   E   E E Q         +W                    H      +H
|------------------------|--------------------||-------------------|
|--------5-------5-------|-(5)----------------||-5------(5)\-------|
|------------7-7---------|--------------------||-------------------|
|------------------------|--------------------||-------------------|
|------------------------|--------------------||-------------------|
|------------------------|--------------------||-------------------|
|
|    PM|   PM    PM  PM|        PM  PM|          PM|            PM
|    |--3--|     |--3--|        |--3--|
| Q  S S S S Q   S S S S    Q   E E E E Q  Q     E E Q   E   Q  E
|------------------------|--------------------||-------------------|
|------------------------|--------------------||-------------------|
|------------------------|--------------------||-----9---7---7-----|
|------------------------|--------------5-----||-----9---7---7-----|
|-7----------7-----------|--7-----------3--5--||-----7---5---5-----|
|-5--5-5-5-5-5---5-5-5-5-|--5---5-5-5-5----3--||-0-0------------0--|
 
 
  Gtr I
       |-3-| |--3--|                         |-3-| |--3--|
  E Q  E E E E E E E     Q  Q  E Q  E   E Q  E E E E E E E     Q  Q  E Q  E
|--------------------||---------------|---------------------||--------------|
|--------------------||o--------------|--------------------o||--------------|
|--------------------||-----9--7-7----|-7-7-----------------||----9--7-7----|
|-7-7----------------||-----9--7-7----|-7-7-----------------||----9--7-7----|
|-5-5--------5-7p5-0-||o----7--5-5----|-5-5--------0-5-7-0-o||----7--5-5----|
|------0-5h7---------||--0----------0-|------0-5h7----------||-0------------|
 
 
               Slower Q=160
                   PM----|   PM|     PM--|
  E Q  E Q  Q      E E E E E E E E   E E E E +Q   Q   6x Q  Q Q
|--------------||------------------|------------------||--------*|
|--------------||o-----------------|-----------------o||--------*|
|-7-7----7-----||------------------|------------------||--------*|
|-7-7----7--7--||------------------|------------------||--------*|
|-5-5----5--7--||o---------5-----7-|-------8-(8)--7--o||-5--2---*|
|-----------5--||--0-0-0-0-3-0-0-5-|-0-0-0-6-(6)--5---||-3--0---*|
 
 



My mother was a witch,
she was burned alive
Thankless little bitch,
for the tears I cried
Take her down now,
dont want to see her face
All blistered and burnt,
cant hide my disgrace

Twenty-seven,
everyone was nice
Gotta see em make em pay the price
See their bodies out on the ice
Take my time

Am I evil?
yes, I am
Am I evil?
I am man,
yes, I am

As I watched my mother die,
I lost my head
Revenge now I sought,
to break with my bread
Taking no chances,
you come with me
Ill split you to the bone,
help set you free

Twenty-seven,
everyone was nice
Gotta see em,
make em pay the price
See their bodies out on the ice
Take my time

Am I evil?
yes, I am
Am I evil?
I am man,
yes, I am,

On with the action now,
Ill strip your pride
Ill spread your blood around,
Ill see you ride
Your face is scarred with steel, wounds deep and neat
Like a double dozen before ya,
smells so sweet

Am I evil?
yes, I am
Am I evil?
I am man

Ill make my residence,
Ill watch your fire
You can come with me,
sweet desire
My face is long forgot,
my face not my own
Sweet and timely whore,
take me home

Am I evil?
yes, I am
Am I evil?
I am man

My soul is longing for,
await my heir
Sent to avenge my mother,
sweep myself
My face is long forgot,
my face not my own
Sweet and timely whore,
take me home

Am I evil?
yes, I am
Am I evil?
I am man

Am I evil?
yes, I fucking am
Am I evil?
I am man, yeah





Duration Legend
---------------
W - whole; H - half; Q - quarter; E - 8th; S - 16th; T - 32nd; X - 64th; a - acciaccatura
+ - note tied to previous; . - note dotted; .. - note double dotted
Uncapitalized letters represent notes that are staccato (1/2 duration)
Irregular groupings are notated above the duration line
Duration letters will always appear directly above the note/fret number it represents the
duration for.  Duration letters with no fret number below them represent rests.  Multi-
bar rests are notated in the form Wxn, where n is the number of bars to rest for.  Low
melody durations appear below the staff
 
Tablature Legend
----------------
 h   - hammer-on
 p   - pull-off
 b   - bend
 pb  - pre-bend
 r   - bend release (if no number after the r, then release immediately)
 /\  - slide into or out of (from/to "nowhere")
 s   - legato slide
 S   - shift slide
  - natural harmonic
[n]  - artificial harmonic
n(n) - tapped harmonic
 ~   - vibrato
 tr  - trill
 T   - tap
 TP  - trem. picking
 PM  - palm muting
\n/  - tremolo bar dip; n = amount to dip
 \n  - tremolo bar down
 n/  - tremolo bar up
/n\  - tremolo bar inverted dip
 =   - hold bend; also acts as connecting device for hammers/pulls
 <>  - volume swell (louder/softer)
 x   - on rhythm slash represents muted slash
 o   - on rhythm slash represents single note slash
 
Misc Legend
-----------
 |  - bar
||  - double bar
||o - repeat start
o|| - repeat end
*|  - double bar (ending)
 :  - bar (freetime)
 $  - Segno
 &  - Coda
Tempo markers -  = BPM(8/16=s8/s16), where s8 = swing 8ths, s16 = swing 16ths





------------------

version 6





Tuning: E A D G B E
Key: Em

[Verse 1]
A5              G5     Bb5  A5                   G5
My mother was a witch,      she was burned alive
A5               G5    Bb5  A5                    G5
Thankless little bitch,     for the tears I cried
A5            G5       Bb5  A5                         G5
Take her down now,          don't want to see her face
A5                      Bb5                        G5
All blistered and burnt,    can't hide my disgrace
 
 
[Pre-Chorus]
       D5        E5            F5 E5
Twenty-seven, everyone was nice
       D5            E5                F5 E5
Got to see them make them pay the price
          D5         E5         F5 E5
See their bodies out on the ice
    D5  E5
Take my time
 
 
[Chorus]
G5    A5   Bb5  G5    A5
Am I evil?      Yes I am
G5    A5   Bb5 A5  G5        Bb5    A5
Am I evil?         I am man, yes I am
 
 
[Verse 2]
A5                  G5    A5 Bb5   A5        G5    A5   Bb5
As I watched my mother die,        I lost my head
A5              G5      A5   Bb5   A5               G5    A5  Bb5
  Revenge now I sought,            to break with my bread
          G5       Bb5    A5               G5     A5   Bb5    A5
Taking no chances,           you come with me
               G5          A5  Bb5 A5                 G5      A5
I'll split you to the bone,              help set you free
 
 
[Pre-Chorus]
       D5         E5            F5   E5
Twenty-seven, everyone was nice
       D5    E5                         F5   E5
Got to see them make them pay the price
          D5         E5          F5   E5
See their bodies out on the ice
    D5  E5
Take my time
 
 
[Chorus]
G5   A5     Bb5  A5  G5    A5    Bb5  A5
Am I evil?           Yes I am
G5   A5    G5   A5   Bb5   A5
Am I evil? I am man, yes I am
 
 
[Verse 3]
                       D5                       D5
On with the action now,    I'll strip your pride
                             D5                       D5
I'll spread your blood around,    I'll see you writhe
                                D5                       D5
Your face is scarred with steel,    wounds deep and neat
                                D5                     D5
Like a devil dancin' before you,       smells so sweet
 
 
[Chorus]
A5          G5 D5 A5           C5 G5
Am I evil?            Yes I am
A5          G5 D5 A5            C5 G5
Am I evil?            I am man,
 
 
[Verse 4]
                      D5                     D5
I'll make my residence, I'll watch your fire
                    D5            D5
You can come with me, sweet desire
                      D5                   D5
My face is long forgot, my face not my own
                      D5            D5
Sweet and timely whore, take me home
 
 
[Chorus]
A5           G5 D5 A5             C5 G5
Am I evil?              Yes I am
A5            G5 D5 A5                      E5 G5 A5
Am I evil?              I am man,                 Go!
 
 
[Verse 5]
                       D5                 D5
My soul is longing for,     await my heir
                        D5                D5
Sent to avenge my mother,   sweep myself
                       D5                       D5
My face is long forgot,     my face not my own
                       D5                D5
Sweet and timely whore,     take me home
 
 
[Chorus]
A5        G5 D5 A5           C5 G5
Am I evil?          Yes I am
A5        G5 D5 A5            C5 G5
Am I evil?          I am man
A5         G5 D5 A5           C5 G5
Am I evil?      Yes I fuckin' am
A5         G5 D5 A5           C5 G5 E5
Am I evil?          I am man,      yeah...
 
E5 D5         E5 D5      E5 D5
 
 
[Coda]
G5 A5 Bb5 A5 G5 E5







-----------------