Tab Realm

TAB by Song : 214706
A B C D E F G H I J K L M N O P Q R S T U V W X Y Z
Tab List Area
1 Pages 1 Results

´╗┐Am I Savage by Metallica


                               Am I Savage 


Tuning: E A D G B E
Key: Em

[Intro]
 
James
e|-----------------------------------|----------------------------------------| Repeat 4X
B|-----------------------------------|----------------------------------------|
G|-------2-----0---------------0-----|-----------2-----0---------------0------|
D|----2-----2-----2---------2--------|--------2-----2-----2---------0---------|
A|-----------------------------------|-----3---------------------2------------|
E|-0---------------------3-----------|----------------------------------------|
 
Kirk
e|---------------------------------------------------------------------------|
B|---------------------------------------------------------------------------|
G|----12h14------12------12~~~------------12h14--------------12~~~-----------|
D|---------------------------------------------------14----------------------|
A|---------------------------------------------------------------------------|
E|---------------------------------------------------------------------------|
 
Kirk
e|---------------------------------------------------------------------------|
B|---------------------------------------------------------------------------|
G|----12h14------12------12~~~------------12h14------14br----12~~~-----------|
D|---------------------------------------------------------------------------|
A|---------------------------------------------------------------------------|
E|---------------------------------------------------------------------------|
 
James
e|-------------------------------------|-------------------------------------------| Repeat 2X
B|-------------------------------------|-------------------------------------------|
G|-------2-----0-----------0--------0--|--------2-----0-----------0--------0-------|
D|----2-----2-----2-----2--------2-----|-----2-----2-----2-----0--------0----------|
A|-------------------------------------|--4-----------------1--------1-------------|
E|-0-----------------3--------3--------|-------------------------------------------|
   *  *     *        *  *     *  *        *  *     *        *  *     *  *
 
Kirk
e|-------------------------------------|-------------------------------------------|
B|-------------------------------------|-------------------------------------------|
G|-------14b---12~----12~--------------|-----9/14b---12~----12~------14p12-14------|
D|----0------------------------14\-----|-------------------------------------------|
A|-------------------------------------|-------------------------------------------|
E|-0-----------------------------------|-------------------------------------------|
 
Kirk
e|-----------------0-------------------|------------------------------------------|
B|-----------------0-------------------|--------------15-----15b------------------|
G|---9/14b----12---0----12~------------|-----9/14b-------14-----------------------|
D|-----------------------------14\-----|------------------------------------------|
A|-------------------------------------|------------------------------------------|
E|-------------------------------------|------------------------------------------|
 
e|------------------------------------------|------------------------------------------|
B|------------------------------------------|------------------------------------------|
G|------------------------------------------|------------------------------------------|
D|------------------------------------------|------------------------------------------|
A|--------------------------------11---12---|---12-12-12-12-12-12--12-12-12-12-12-12---|
E|--0----2~---3~---5~---6~---8~---9----10---|---10-10-10-10-10-10--10-10-10-10-10-10---|
 
[Main Riff]
 
Both
e|---------------------------------------|--------------------------------------------|
B|---------------------------------------|--------------------------------------------|
G|---------------------------------------|--------------------------------------------|
D|---------------------------------------|--------------------------------------------|
A|-7p5--7p5----8--7----7--7----5\--------|------7p5--7p5----8----7\5----5-------------|
E|-0----0------6-------5-------3\-0------|------0----0------6----0\3----3-------------|
 
James
e|---------------------------------------|------------------------------------------------|
B|---------------------------------------|------------------------------------------------|
G|---------------------------------------|------------------------------------------------|
D|---------------------------------------|------------------------------------------------|
A|-7p5--7p5----8--7----7--7----5\--------|------7p5--7p5----8----7------5----5\2--4--4\---|
E|-0----0------6-------5-------3\-0------|------0----0------6----0------3----3\0--2--2\---|
 
Kirk
e|---------------------------------------|---------------------------------------------------|
B|---------------------------------------|---------------------------------------------------|
G|---------------------------------------|------------------------------12---12\9--11--11\---|
D|---------------------------------------|------------------------------12---12\9--11--11\---|
A|-7p5--7p5----8--7----7--7----5\--------|------7p5--7p5----8----7---------------------------|
E|-0----0------6-------5-------3\-0------|------0----0------6----0---------------------------|
 
 
[Verse]
 
e|-----------------------------------------|---------------------------------------------|
B|-----------------------------------------|---------------------------------------------|
G|-----------------------------------------|---------------------------------------------|
D|-------3---------------3-----------------|--------3---------------3--------------------|
A|-2--2--1p0-------2--2--1p0-------2----3--|--2--2--1p0-------2--2--1p0-------2----3-----|
E|-0--0-------3p0--0--0-------3p0--0----1--|--0--0-------3p0--0--0-------3p0--0----1-----|
   *  *            *  *                       *  *            *  *
 
e|-----------------------------------------|-----------------------|
B|-----------------------------------------|-----------------------|
G|-----------------------------------------|-----------------------|
D|-------3---------------3-----------------|--5--------3~----------|
A|-2--2--1p0-------2--2--1p0-------2----3--|--3----5p3\1~----------|
E|-0--0-------3p0--0--0-------3p0--0----1--|-----------------------|
   *  *            *  *
 
e|------------------------------------------|--------------------------------------------|
B|------------------------------------------|--------------------------------------------|
G|------------------------------------------|--------------------------------------------|
D|-------3---------------3--3---------------|--------3---------------3-------------------|
A|-2--2--1p0-------2--2--1--0-------2----3--|--2--2--1p0-------2--2--1p0-------2----3----|
E|-0--0-------3p0--0--0--------3p0--0----1--|--0--0-------3p0--0--0-------3p0--0----1----|
   *  *            *  *                        *  *            *  *
 
e|----------------------------------------|-------------------|
B|----------------------------------------|-------------------|
G|----------------------------------------|-------------------|
D|-------3---------------3----------------|--5----5\3---------|
A|-2--2--1p0-------2--2--1p0-------2---3--|--3----3\1---------|
E|-0--0-------3p0--0--0-------3p0--0---1--|-------------------|
   *  *            *  *
 
[Pre-Chorus]
 
e|-----------------------------|-------------------------|---------------------------------|
B|-----------------------------|-------------------------|---------------------------------|
G|-----------------------------|-------------------------|---------------------------------|
D|-----------6-----------------|-----------3----3-3-3-3--|------------6--------------------|
A|-2----5----4----4-4-4--3-3-3-|-2----5----1----1-1-1-1--|--2----5----4----4-4-4--3-3-3----|
E|-0----3----------------------|-0----3------------------|--0----3-------------------------|
                  * * *  * * *                                             * * *  * * *
 
e|----------------------------|------------------------------|-----------------------------|
B|----------------------------|------------------------------|-----------------------------|
G|----------------------------|------------------------------|-----------------------------|
D|-------------------3-3-3-3--|------------6-----------------|-------------------3-3-3-3---|
A|-2----5----1TR2----1-1-1-1--|--2----5----4----4-4-4--3-3-3-|-2----5----1TR2----3-3-3-3---|
E|-0----3------------1-1-1-1--|--0----3----------------------|-0----3------------1-1-1-1---|
                                                * * *  * * *
 
e|-------------------------------------|----------------------------------------| Repeat 2x
B|-------------------------------------|----------------------------------------|
G|-------0--------0--------0--------0--|--------0--------0--------0--------0----|
D|----2--------2--------2--------2-----|-----2--------2--------0--------0-------|
A|-------------------4--------4--------|--------------------1--------1----------|
E|-0--------3--------------------------|--0--------3----------------------------|
   *  *     *  *     *  *     *  *        *  *     *  *     *  *     *  *
 
e|---------------------------------------------------------------------------| Kirk 2nd time through
B|------------------------------------------------------------11~~~~~~~~-----|
G|----------------------------------------12~~~~~~~~-------------------------|
D|---------------------------------------------------------------------------|
A|---------------------------------------------------------------------------|
E|---------------------------------------------------------------------------|
 
 
[Chorus]
 
e|--------------------------------------------------------------------|
B|--------------------------------------------------------------------|
G|--------------------------------------------------------------------|
D|--------------------------------------------------------------------|
A|--------------------------------------------------------------------|
E|-0----2~----3~----5~----6~----8~----9~----10---10\------------------|
 
James
e|------------------------------------------------------------------|
B|------------------------------------------------------------------|
G|------------------------------------------------------------------|
D|------------------------------------------------------------------|
A|-2----4----5----7----8----10----11----12---12\--------------------|
E|-0----2----3----5----6----8-----9-----10---10\--------------------|
 
Kirk
e|------------------------------------------------------------------|
B|------------------------------------------------------------------|
G|--------------------------------------5~-----6~-----7~-----9~-----|
D|-2~-----2/4~-----5~-----7~-----8~---------------------------------|
A|------------------------------------------------------------------|
E|------------------------------------------------------------------|
 
[Main Riff]
 
e|---------------------------------------|--------------------------------------------|
B|---------------------------------------|--------------------------------------------|
G|---------------------------------------|--------------------------------------------|
D|---------------------------------------|--------------------------------------------|
A|-7p5--7p5----8--7----7--7----5\--------|------7p5--7p5----8----7\5----5-------------|
E|-0----0------6-------5-------3\-0------|------0----0------6----0\3----3-------------|
 
James
e|---------------------------------------|------------------------------------------------|
B|---------------------------------------|------------------------------------------------|
G|---------------------------------------|------------------------------------------------|
D|---------------------------------------|------------------------------------------------|
A|-7p5--7p5----8--7----7--7----5\--------|------7p5--7p5----8----7------5----5\2--4--4\---|
E|-0----0------6-------5-------3\-0------|------0----0------6----0------3----3\0--2--2\---|
 
Kirk
e|---------------------------------------|---------------------------------------------------|
B|---------------------------------------|---------------------------------------------------|
G|---------------------------------------|------------------------------12---12\9--11--11\---|
D|---------------------------------------|------------------------------12---12\9--11--11\---|
A|-7p5--7p5----8--7----7--7----5\--------|------7p5--7p5----8----7---------------------------|
E|-0----0------6-------5-------3\-0------|------0----0------6----0---------------------------|
 
[Verse]
 
e|-----------------------------------------|---------------------------------------------|
B|-----------------------------------------|---------------------------------------------|
G|-----------------------------------------|---------------------------------------------|
D|-------3---------------3-----------------|--------3---------------3--------------------|
A|-2--2--1p0-------2--2--1p0-------2----3--|--2--2--1p0-------2--2--1p0-------2----3-----|
E|-0--0-------3p0--0--0-------3p0--0----1--|--0--0-------3p0--0--0-------3p0--0----1-----|
   *  *            *  *                       *  *            *  *
 
e|-----------------------------------------|-----------------------|
B|-----------------------------------------|-----------------------|
G|-----------------------------------------|-----------------------|
D|-------3---------------3-----------------|--5--------3~----------|
A|-2--2--1p0-------2--2--1p0-------2----3--|--3----5p3\1~----------|
E|-0--0-------3p0--0--0-------3p0--0----1--|-----------------------|
   *  *            *  *
 
e|------------------------------------------|--------------------------------------------|
B|------------------------------------------|--------------------------------------------|
G|------------------------------------------|--------------------------------------------|
D|-------3---------------3--3---------------|--------3---------------3-------------------|
A|-2--2--1p0-------2--2--1--0-------2----3--|--2--2--1p0-------2--2--1p0-------2----3----|
E|-0--0-------3p0--0--0--------3p0--0----1--|--0--0-------3p0--0--0-------3p0--0----1----|
   *  *            *  *                        *  *            *  *
 
e|----------------------------------------|--------------------|
B|----------------------------------------|--------------------|
G|----------------------------------------|--------------------|
D|-------3---------------3----------------|--5----5\3----------|
A|-2--2--1p0-------2--2--1p0-------2---3--|--3----3\1----------|
E|-0--0-------3p0--0--0-------3p0--0---1--|--------------------|
   *  *            *  *
 
[Pre-Chorus]
 
e|-----------------------------|-------------------------|---------------------------------|
B|-----------------------------|-------------------------|---------------------------------|
G|-----------------------------|-------------------------|---------------------------------|
D|-----------6-----------------|-----------3----3-3-3-3--|------------6--------------------|
A|-2----5----4----4-4-4--3-3-3-|-2----5----1----1-1-1-1--|--2----5----4----4-4-4--3-3-3----|
E|-0----3----------------------|-0----3------------------|--0----3-------------------------|
                  * * *  * * *                                             * * *  * * *
 
e|----------------------------|------------------------------|-----------------------------|
B|----------------------------|------------------------------|-----------------------------|
G|----------------------------|------------------------------|-----------------------------|
D|-------------------3-3-3-3--|------------6-----------------|-------------------3-3-3-3---|
A|-2----5----1TR2----1-1-1-1--|--2----5----4----4-4-4--3-3-3-|-2----5----1TR2----3-3-3-3---|
E|-0----3------------1-1-1-1--|--0----3----------------------|-0----3------------1-1-1-1---|
                                                * * *  * * *
 
e|-------------------------------------|----------------------------------------| Repeat 2x
B|-------------------------------------|----------------------------------------|
G|-------0--------0--------0--------0--|--------0--------0--------0--------0----|
D|----2--------2--------2--------2-----|-----2--------2--------0--------0-------|
A|-------------------4--------4--------|--------------------1--------1----------|
E|-0--------3--------------------------|--0--------3----------------------------|
   *  *     *  *     *  *     *  *        *  *     *  *     *  *     *  *
 
e|---------------------------------------------------------------------------| Kirk 2nd time through
B|------------------------------------------------------------11~~~~~~~~-----|
G|----------------------------------------12~~~~~~~~-------------------------|
D|---------------------------------------------------------------------------|
A|---------------------------------------------------------------------------|
E|---------------------------------------------------------------------------|
 
[Chorus]
 
e|--------------------------------------------------------------------|
B|--------------------------------------------------------------------|
G|--------------------------------------------------------------------|
D|--------------------------------------------------------------------|
A|--------------------------------------------------------------------|
E|-0----2~----3~----5~----6~----8~----9~----10---10\------------------|
 
James
e|------------------------------------------------------------------|
B|------------------------------------------------------------------|
G|------------------------------------------------------------------|
D|------------------------------------------------------------------|
A|-2----4----5----7----8----10----11----12---12\--------------------|
E|-0----2----3----5----6----8-----9-----10---10\--------------------|
 
Kirk
e|------------------------------------------------------------------|
B|------------------------------------------------------------------|
G|--------------------------------------5~-----6~-----7~-----9~-----|
D|-2~-----2/4~-----5~-----7~-----8~---------------------------------|
A|------------------------------------------------------------------|
E|------------------------------------------------------------------|
 
[Main Riff]
 
e|---------------------------------------|--------------------------------------------|
B|---------------------------------------|--------------------------------------------|
B|---------------------------------------|--------------------------------------------|
D|---------------------------------------|--------------------------------------------|
A|-7p5--7p5----8--7----7--7----5\--------|------7p5--7p5----8----7\5----5-------------|
E|-0----0------6-------5-------3\-0------|------0----0------6----0\3----3-------------|
 
James
e|---------------------------------------|------------------------------------------------|
B|---------------------------------------|------------------------------------------------|
G|---------------------------------------|------------------------------------------------|
D|---------------------------------------|------------------------------------------------|
A|-7p5--7p5----8--7----7--7----5\--------|------7p5--7p5----8----7------5----5\2--4--4\---|
E|-0----0------6-------5-------3\-0------|------0----0------6----0------3----3\0--2--2\---|
 
Kirk
e|---------------------------------------|---------------------------------------------------|
B|---------------------------------------|---------------------------------------------------|
G|---------------------------------------|------------------------------12---12\9--11--11\---|
D|---------------------------------------|------------------------------12---12\9--11--11\---|
A|-7p5--7p5----8--7----7--7----5\--------|------7p5--7p5----8----7---------------------------|
E|-0----0------6-------5-------3\-0------|------0----0------6----0---------------------------|
 
[Interlude]
 
e|----------------------------------------------|----------------------------------------------|
B|----------------------------------------------|----------------------------------------------|
G|----------------------------------------------|----------------------------------------------|
D|---------------5----------------5-------------|---------------5----------------5-------------|
A|------7--5--7-----7~---7--5--7-----7--5\4--5--|-7~---7--5--7-----7~---7--5--7-----7--5\4--5--|
E|-0--------------------------------------------|----------------------------------------------|
 
e|----------------------------------------------|----------------------------------------------|
B|----------------------------------------------|----------------------------------------------|
G|----------------------------------------------|----------------------------------------------|
D|---------------1----------------1-------------|---------------1----------------1-------------|
A|-3~---3--1--3-----3~---3--1--3-----3--1--0--1-|-3~---3--1--3-----3~---3--1--3----------------|
E|----------------------------------------------|-----------------------------------2--2--2----|
                                        *  *  *                                    NH NH NH
 
e|----------------------------------------------|--------------------------------------------------|
B|----------------------------------------------|--------------------------------------------------|
G|----------------------------------------------|--------------------------------------------------|
D|----------------------------------------------|--------------------------------------------------|
A|-2--2-------2--2--2-------0--2--2--1--1--0--1-|-2--2-------2--2--2-------0--2--2--1--1--0--1-----|
E|-0--0---3---0--0--0---2---0--0--0--0--0--0--0-|-0--0---3---0--0--0---2---0--0--0--0--0--0--0-----|
         NH            NH   *  *  *  *  *  *  *   *  *  NH            NH   *  *  *  *  *  *  *
[Solo]
 
James
e|----------------------------------------------|--------------------------------------------------| 2x
B|----------------------------------------------|--------------------------------------------------|
G|----------------------------------------------|--------------------------------------------------|
D|----------------------------------------------|--------------------------------------------------|
A|-2--2-------2--2--2-------0--2--2--1--1--0--1-|-2--2-------2--2--2-------0--2--2--1--1--0--1-----|
E|-0--0---3---0--0--0---2---0--0--0--0--0--0--0-|-0--0---3---0--0--0---2---0--0--0--0--0--0--0-----|
         NH            NH   *  *  *  *  *  *  *   *  *  NH            NH   *  *  *  *  *  *  *
 
e|---------------------------------------------|---------------------------------------------------|
B|---------------------------------------------|---------------12---------12--14br--14br--14br-----|
G|--2b--------------------2b--2b--2b--2--2--0--|--2brp0--------12--12b----12--14br--14br--14br-----|
D|---------------------------------------------|---------2/15----------14--------------------------|
A|---------------------------------------------|---------------------------------------------------|
E|---------------------------------------------|---------------------------------------------------|
 
e|------------------12-------------------------------------------------------------------------------------|
B|--12----12--15b------12-15-12h15p12-15b--12h15p12----12h15p12----12h15p12----12h15p12----12h15p12----12--|
G|--12----12----------------------------------------14----------14----------14----------14----------14-----|
D|-----14--------------------------------------------------------------------------------------------------|
A|---------------------------------------------------------------------------------------------------------|
E|---------------------------------------------------------------------------------------------------------|
 
e|------------------------------------------12-------12------------------------------------------------|
B|-15p12-17p12--15p12-----12-15p12-17p12-15-12-12-12----15-12-----12-15p12------------15---15\---------|
G|--------------------14b-------------------------------------14b---------14p12----12-14b--14\---------|
D|------------------------------------------------------------------------------14---------------------|
A|-----------------------------------------------------------------------------------------------------|
E|-----------------------------------------------------------------------------------------------------|
 
James
e|---------------------------------------------------------------------------|
B|---------------------------------------------------------------------------|
G|---------------------------------------------------------------------------|
D|--5-----5---------5----5----5---------5----5----5---------5----5----5/8----|
A|--3-----3----3----3----3----3----3----3----3----3----3----3----3----3/6----|
E|-------------3-------------------3-------------------3--------------3/6----|
 
e|-------11p8-----8--------------------------------------------------------------------------|
B|-------------11---11-8----8-11p8-----------------------------------------------------------|
G|-----------------------10--------10p8----8-10-10br-10br-10br-10brp8----8-10p8--------------|
D|--------------------------------------10----------------------------10-------10----8h10~---|
A|-------------------------------------------------------------------------------------------|
E|-------------------------------------------------------------------------------------------|
 
James
e|---------------------------------------------------------------------------|
B|---------------------------------------------------------------------------|
G|---------------------------------------------------------------------------|
D|--8\5---------5----5----5---------5----5----5---------5----5----5/8--------|
A|--6\3----3----3----3----3----3----3----3----3----3----3----3----3/6--------|
E|--6\3----3-------------------3-------------------3--------------3/6--------|
 
e|-----11p8----8----------------------------------------------------------------------|
B|----------11---11-8----8-11p8------------------8-------8-------8------------11b~----|
G|--------------------10--------10p8----8-10b------10b-----10b-----10b---8--8---------|
D|-----------------------------------10-----------------------------------------------|
A|------------------------------------------------------------------------------------|
E|------------------------------------------------------------------------------------|
 
e|---------------------------------------------------------------------------|
B|---------------------------------------------------------------------------|
G|---------------------------------------------------------------------------|
D|--8\5---------5----5----5---------5----5----5---------5----5----5/8--------|
A|--6\3----3----3----3----3----3----3----3----3----3----3----3----3/6--------|
E|--6\3----3-------------------3-------------------3----3----3----3/6--------|
 
e|---------------------------------------------------------------------------------|
B|---------8-------------10-----------8---8---------10------------------8----------|
G|---------8---8b--------10-----------8---8---------10------------------8----------|
D|----8h10----------8h10---------8h10----------8h10----------------8h10------10----|
A|---------------------------------------------------------------------------------|
E|---------------------------------------------------------------------------------|
 
e|-----------------------------------------------------------------------------|
B|-----------------------------------------------------------------------------|
G|-----------------------------------------------------------------------------|
D|--8\5---------5----5----5---------5----5----5---------5----5----5/8----8\----|
A|--6\3----3----3----3----3----3----3----3----3----3----3----3----3/6----6\----|
E|--6\3----3-------------------3-------------------3---------3----3/6----6\----|
 
e|-----------------------------------------------------------------------------|
B|--10br-----------------------------------------------------------------------|
G|--10br----8--------8---10---10b----10---8--------8----10p8-------8\----------|
D|--------------10----------------------------10-------------10----------------|
A|-----------------------------------------------------------------------------|
E|-----------------------------------------------------------------------------|
 
James
e|----------------------------------------------|--------------------------------------------------| 2x
B|----------------------------------------------|--------------------------------------------------|
G|----------------------------------------------|--------------------------------------------------|
D|----------------------------------------------|--------------------------------------------------|
A|-2--2-------2--2--2-------0--2--2--1--1--0--1-|-2--2-------2--2--2-------0--2--2--1--1--0--1-----|
E|-0--0---3---0--0--0---2---0--0--0--0--0--0--0-|-0--0---3---0--0--0---2---0--0--0--0--0--0--0-----|
         NH            NH   *  *  *  *  *  *  *   *  *  NH            NH   *  *  *  *  *  *  *
 
e|---------------------------------------------------------------------------|
B|---------------------------------------------------------------------------|
G|--2b-2b-2b-2b---2b----2b-2b-2b---2b-2b-2b---2b-2b-2b-2b-2b-2b-2b-2b--------|
D|---------------------------------------------------------------------------|
A|---------------------------------------------------------------------------|
E|---------------------------------------------------------------------------|
 
e|---------------------------------------------------------------------------|
B|---------------------------------------------------------------------------|
G|--2brp0-----------2brp0----------2brp0---2brp0---2brp0------0--------------|
D|---------2-----x---------2------------------------------2---0--------------|
A|---------------x-----------------------------------------------------------|
E|---------------x-----------------------------------------------------------|
 
James
e|----------------------------------------------|----------------------------------------------|
B|----------------------------------------------|----------------------------------------------|
G|----------------------------------------------|----------------------------------------------|
D|---------------5----------------5-------------|---------------5----------------5-------------|
A|-2----7--5--7-----7~---7--5--7-----7--5\4--5--|-7~---7--5--7-----7~---7--5--7-----7--5\4--5--|
E|-0--------------------------------------------|----------------------------------------------|
 
e|-------------------------------------|--------------------------------------|
B|-------------------------------------|--------------------------------------|
G|--16br--------16--15--14--12---------|------------12------12\---------------|
D|------------------------------14--12-|-14~----------------------------------|
A|-------------------------------------|--------------------------------------|
E|-------------------------------------|--------------------------------------|
 
e|-----------------------------------------------|---------------------------------------------------------|
B|-----------------------------------------------|---------------------------------------------------------|
G|-----------------------------------------------|---------------------------------------------------------|
D|---------------1----------------1--------------|---------------1----------------1------------------------|
A|-3~---3--1--3-----3~---3--1--3-----3--1--0--1--|-3~---3--1--3-----3~---3--1--3---------------------------|
E|-----------------------------------------------|-----------------------------------3--3--3------2--2--2--|
                                        *  *  *                                     NH NH NH     NH NH NH
 
e|-----------------------------------------------------------------------------------------------|
B|--1/8--------8~---8--7--6----------------------------------------------------------------------|
G|---------------------------8--5-----5~---------------------------------------------------------|
D|---------------------------------8-------------------------------x-x-x------x-x-x--------------|
A|-----------------------------------------------------------------x-x-x------x-x-x--------------|
E|-----------------------------------------------------------------x-x-x------x-x-x--------------|
 
[Verse]
 
e|-----------------------------------------|--------------------------------------------|
B|-----------------------------------------|--------------------------------------------|
G|-----------------------------------------|--------------------------------------------|
D|-------3---------------3-----------------|--------3---------------3-------------------|
A|-2--2--1p0-------2--2--1p0-------2----3--|--2--2--1p0-------2--2--1p0-------2----3----|
E|-0--0-------3p0--0--0-------3p0--0----1--|--0--0-------3p0--0--0-------3p0--0----1----|
   *  *            *  *                       *  *            *  *
 
e|-----------------------------------------|-----------------------|
B|-----------------------------------------|-----------------------|
G|-----------------------------------------|-----------------------|
D|-------3---------------3-----------------|--5--------3~----------|
A|-2--2--1p0-------2--2--1p0-------2----3--|--3----5p3\1~----------|
E|-0--0-------3p0--0--0-------3p0--0----1--|-----------------------|
   *  *            *  *
 
e|------------------------------------------|--------------------------------------------|
B|------------------------------------------|--------------------------------------------|
G|------------------------------------------|--------------------------------------------|
D|-------3---------------3--3---------------|--------3---------------3-------------------|
A|-2--2--1p0-------2--2--1--0-------2----3--|--2--2--1p0-------2--2--1p0-------2----3----|
E|-0--0-------3p0--0--0--------3p0--0----1--|--0--0-------3p0--0--0-------3p0--0----1----|
   *  *            *  *                        *  *            *  *
 
e|----------------------------------------|--------------------|
B|----------------------------------------|--------------------|
G|----------------------------------------|--------------------|
D|-------3---------------3----------------|--5----5\3----------|
A|-2--2--1p0-------2--2--1p0-------2---3--|--3----3\1----------|
E|-0--0-------3p0--0--0-------3p0--0---1--|--------------------|
   *  *            *  *
 
[Chorus]
 
e|--------------------------------------------------------------------|
B|--------------------------------------------------------------------|
G|--------------------------------------------------------------------|
D|--------------------------------------------------------------------|
A|--------------------------------------------------------------------|
E|-0----2~----3~----5~----6~----8~----9~----10---10\------------------|
 
James
e|------------------------------------------------------------------|
B|------------------------------------------------------------------|
G|------------------------------------------------------------------|
D|------------------------------------------------------------------|
A|-2----4----5----7----8----10----11----12---12\--------------------|
E|-0----2----3----5----6----8-----9-----10---10\--------------------|
 
Kirk
e|------------------------------------------------------------------|
B|------------------------------------------------------------------|
G|--------------------------------------5~-----6~-----7~------------|
D|-2~-----2/4~-----5~-----7~-----8~---------------------------------|
A|------------------------------------------------------------------|
E|------------------------------------------------------------------|
 
James
e|---------------------------------|---------------------------------------------------------------------|
B|---------------------------------|---------------------------------------------------------------------|
G|---------------------------------|---------------------------------------------------------------------|
D|---------------------------------|---------------------------------------------------------------------|
A|-2--2-2-4---4-4-5---5-5-7---7-7--|--8-8-8-8-8-8-10-10-10-10-10-10-11-11-11-11-11-11-12-12-12-12-12-12--|
E|-0--0-0-2---2-2-3---3-3-5---5-5--|--6-6-6-6-6-6-8--8--8--8--8--8--9--9--9--9--9--9--10-10-10-10-10-10--|
      * *     * *     * *     * *
Kirk
e|-------------------------------------------|---------------------------------------------------------|
B|-------------------------------10~--10-10--|--11-11-11-11-11-11-13-13-13-13-13-13-14------15----17\--|
G|-9~--9-9-11~--11-11-12~--12-12-------------|---------------------------------------------------------|
D|-------------------------------------------|---------------------------------------------------------|
A|-------------------------------------------|---------------------------------------------------------|
E|-------------------------------------------|---------------------------------------------------------|
 
[Main Riff]
 
e|---------------------------------------|--------------------------------------------|
B|---------------------------------------|--------------------------------------------|
B|---------------------------------------|--------------------------------------------|
D|---------------------------------------|--------------------------------------------|
A|-7p5--7p5----8--7----7--7----5\--------|------7p5--7p5----8----7\5----5-------------|
E|-0----0------6-------5-------3\-0------|------0----0------6----0\3----3-------------|
 
James
e|---------------------------------------|------------------------------------------------|
B|---------------------------------------|------------------------------------------------|
G|---------------------------------------|------------------------------------------------|
D|---------------------------------------|------------------------------------------------|
A|-7p5--7p5----8--7----7--7----5\--------|------7p5--7p5----8----7------5----5\2--4--4\---|
E|-0----0------6-------5-------3\-0------|------0----0------6----0------3----3\0--2--2\---|
 
Kirk
e|---------------------------------------|---------------------------------------------------|
B|---------------------------------------|---------------------------------------------------|
G|---------------------------------------|------------------------------12---12\9--11--11\---|
D|---------------------------------------|------------------------------12---12\9--11--11\---|
A|-7p5--7p5----8--7----7--7----5\--------|------7p5--7p5----8----7---------------------------|
E|-0----0------6-------5-------3\-0------|------0----0------6----0---------------------------|
 
e|--------------------------------------------------------------------|
B|--------------------------------------------------------------------|
G|--------------------------------------------------------------------|
D|---------------5----------------5----x--x--x------------------------|
A|------7--5--7-----7~---7--5--7-------x--x--x------------------------|
E|--0----------------------------------x--x--x------------------------|
 
[Outro]
 
e|----------------------------------------------|--------------------------------------------------| 2x
B|----------------------------------------------|--------------------------------------------------|
G|----------------------------------------------|--------------------------------------------------|
D|----------------------------------------------|--------------------------------------------------|
A|-2--2-------2--2--2-------0--2--2--1--1--0--1-|-2--2-------2--2--2-------0--2--2--1--1--0--1-----|
E|-0--0---3---0--0--0---2---0--0--0--0--0--0--0-|-0--0---3---0--0--0---2---0--0--0--0--0--0--0-----|
         NH            NH   *  *  *  *  *  *  *   *  *  NH            NH   *  *  *  *  *  *  *
 


Ooooh
Run away, the past will bite again
Ooooh
No matter where you dwell
You
Here again, a captive of the howl
You
Welcome back to hell
Faithful, as the full moon is rising
Beauty and the Beast are colliding
Sharpened edge touch liquid flame
Deepened seed soaks anger's reign
Arching back, shape-shift derange
Father, how I watched you change
Am I savage?
Scratching at the door
Am I savage?
I don't recognize you anymore
Ooooh
Tooth is fang, twisting under skin
Ooooh
Foul tongue, black breath
Change
Snap inside, the Beast about complete
Change
Soon infects the rest
Faithful, as the full moon is rising
Beauty and the Beast are colliding
Sharpened edge touch liquid flame
Deepened seed soaks anger's reign
Arching back, shape-shift derange
Father, how I watched you change
Am I savage?
Howling at the door
Am I savage?
I don't recognize you anymore
Anymore
Ooooh
Inheritance, the past has bit again
Ooooh
The next heir of anarchy
Feel
Stretching skin so far beyond belief
I feel
The ever changing, you, in me
Am I savage?
Scratching at the door
Am I savage?
Howling evermore
Am I savage?
I don't recognize me anymore
Anymore
Anymore, ha ha ha
Am I savage?


 
| h   Hammer-on
| p   Pull-off
| r   Release
| NH  Natural Harmonic
| b   Bend
| br  Bend release
| /   Slide up
| \   Slide down
| ~   Vibrato
| x   Dead Note
| *   Palm mute
| TR  Trill




------------------

version 2 




Tuning: E A D G B E
Key: Em

Intro 

Guitar 1 (let ring)
e|-------------------------------------|-------------------------------------|
B|-------------------------------------|-------------------------------------|
G|-------2-----0-----------0-----------|-------2-----0-----------0-----------| x4
D|----2-----2-----2-----2--------------|----2-----2-----2-----0--------------|
A|-------------------------------------|-3-----------------2-----------------|
E|-0-----------------3-----------------|-------------------------------------|
 
 
Guitar 2 (enters 3rd time)
e|-------------------------------------|-------------------------------------|
B|-------------------------------------|-------------------------------------|
G|----12/14----12----12-~~~~~~~~~~~~---|----12/14----------12-~~~~~~~~~~~~---|
D|-------------------------------------|-------------14----------------------|
A|-------------------------------------|-------------------------------------|
E|-------------------------------------|-------------------------------------|
 
e|-------------------------------------|-------------------------------------|
B|-------------------------------------|-------------------------------------|
G|----12/14----12----12-~~~~~~~~~~~~---|----12/14----14br--12-~~~~~~~~~~~~---|
D|-------------------------------------|-------------------------------------|
A|-------------------------------------|-------------------------------------|
E|-------------------------------------|-------------------------------------|
 
 


Ooooh
Run away, the past will bite again
Ooooh
No matter where you dwell
You
Here again, a captive of the howl
You
Welcome back to hell
Faithful, as the full moon is rising
Beauty and the Beast are colliding
Sharpened edge touch liquid flame
Deepened seed soaks anger's reign
Arching back, shape-shift derange
Father, how I watched you change
Am I savage?
Scratching at the door
Am I savage?
I don't recognize you anymore
Ooooh
Tooth is fang, twisting under skin
Ooooh
Foul tongue, black breath
Change
Snap inside, the Beast about complete
Change
Soon infects the rest
Faithful, as the full moon is rising
Beauty and the Beast are colliding
Sharpened edge touch liquid flame
Deepened seed soaks anger's reign
Arching back, shape-shift derange
Father, how I watched you change
Am I savage?
Howling at the door
Am I savage?
I don't recognize you anymore
Anymore
Ooooh
Inheritance, the past has bit again
Ooooh
The next heir of anarchy
Feel
Stretching skin so far beyond belief
I feel
The ever changing, you, in me
Am I savage?
Scratching at the door
Am I savage?
Howling evermore
Am I savage?
I don't recognize me anymore
Anymore
Anymore, ha ha ha
Am I savage?



 
| /   Slide up
| br  Bend & release
| ~   Vibrato
 


----------------