Lessons/Tabs are sorted alphabetically.

Tab Vault

PROBLEM WITH THIS TAB?   VIEW FULL SCREEN   PRINT

A Black Rose Burial

The Epidemic Of Unexpected Relapses
The Epidemic Of Unexpected Relapses by A Black Rose Burial







       The Epidemic Of Unexpected Relapses 









Tuning (this tab): Drop B [ B F# B E G# C# ] 
 
Tuning: Drop B (B F# B E G# C#)


--------------------------------------------16---|
-----------------------1717--------------16------|
-1111111111111111-1414------1414-1313-16---------|
-------------------------------------------------|
-------------------------------------------------|
-------------------------------------------------|

----------13-----------------------------------16------------------|
-------------121212-------1717--------------16---------------------|
-11111111------------1414------1414-1313-16--------1111111111------|
------------------------------------------------------------------|
------------------------------------------------------------------|
------------------------------------------------------------------|

-------------------------------------------------|
------4-----------4------------------------------|
--------7-----------7----------------------------|
-0~----------0~----------4-3-2--/---4------/-----|
-0~----------0~----------4-3-2--/---4-7-6--/-----|
-0~----------0~----------4-3-2--/---4-3-2--/-----|
 .           .           . . .      . . .

-------------------------------9-7---7-7-7---9-7---7-7-5-----|
-----------10/12--12--1211----x-x---x-x-x---x-x---x-x-x-----|
-----------11/13--13--1312---11-9---9-9-9--11-9---9-9-9-----|
-4~---0------------------------------------------------------|
-4~---0------------------------------------------------------|
-4~---0------------------------------------------------------|
      .

----------------------------------/12---|
----------------------------------------|
----------------------------------------| x2
-2-1-0000----0000-2-1-0000----0---------|
-2-1-0000-9--0000-2-1-0000-9--0---------|
-2-1-0000----0000-2-1-0000----0---------|
 . . ....    .... . . ....    .


----------------------------------------------------------|
----------------------------------------------------------|
-9-9999-10-99-9-9999-10-99--9-9999-999-5-5555-555---------|
-0-0000--0-00-0-0000--0-00--8-8888-888-3-3333-333---------|
----------------------------------------------------------|
----------------------------------------------------------|

-------------------------------------------------------------------------|
-----15-------15-------15-------15-------18-------18--1818181817171717---|
-1414--14-1414--14-1515--15-1515--15-1717--17-1717--17-------------------|
-------------------------------------------------------------------------|
-------------------------------------------------------------------------|
-------------------------------------------------------------------------|

----------------------------------|
----------------------------------|
----------------------------------|
-000000-00-00---00-000000-00-00---|
-000000-00-00---00-000000-00-00---|
-000000-00-00---00-000000-00-00---|
 ...... .. ..   .. ...... .. ..


| /  slide up
|   slide down
| h  hammer-on
| p  pull-off
| ~  vibrato
| +  harmonic
| x  Mute note




--------------------

version 2





Tuning-Drop B ( B,F#,B,E,G#,C#)

-------------------21------------------------------21------------|
-19191919----22----------21--19----18--------22----------21--19-|
-18181818------21----21--------18----17--17----21----21------18-|
-16161616--19----19----19--16----16----16--19----19----19----16-|
-----------------------------------------------------------------|
-----------------------------------------------------------------|

----0----0----------------------------------17----|
-----4----4------------------------------17-------|
--------------------------------------------15----|
--------------2-1------------------------15-------|
-1-1--1-1--1--4-3---------------------------------|
-0-0--0-0--0------12345678910111213141516---------|x2,
 . .  . .  .  . . ......................
"You had better be prepared to turn wet and messy." part then..
----------12-10-10-9-9-8-8888--9-8-8888---------|
----9999------7--7-6-7-6-6666--7-6-6666---------|
--------10----7--7-6-7-6-6666--7-6-6666---------|
-4----------------------------------------------|
-1-0--------------------------------------------|
-1-0--------------------------------------------|
 . .          ^           Clean             ^

Clean
-------------------------------------------------|
-------------------------------------------------|
-------------------------------------------------|
------77-------77-------77--8--------------------|
--66----77-66----77-66----77-7-7----------------|
----77-------77-------77-------8----------------|

youll know when to palm mute..
-------------------------------------------------------4/--|
--------------------------4/-------------------------------|
-----------------------------------------------------------|
---------4-------------4--------------4-------------4------|
-2-1-1111-1111-2-1-1111--1---2-1-1111-------2-1-1111-1-----|
-3-2-1111-1111-3-2-1111--1---3-2-1111--1111-3-2-1111-1-----|

amount of strumming not included, you can figure it out. Clean..
-5-5---5---------5-3---------------|
-5-5h6-5---------5-3---------------|
-7-7---7---------7-5---------------|
-7-7---7---------8-7---------------|
-5-5---5--x2-----5-3---------------|
-----------------5-3---------------|

not exact amount of strumming..
---------------------------------------------------|
---------------------------------------------------|
-----7---------------------7-----------------------|
-7-8---8-7--x2--8-7----7-8---8-7--x2---12-10--9----|
-5-5-5-5-5------5-3----5-5-5-5-5--------8--5--5----|
-0-0-0-0-0------5-3----0-0-0-0-0 -------8--5--5----|

All Double Picked
-------------------------------------------------------------------|
-----15------15------15------15------18------18------17------17----|
---14--14--14--14--15--15--15--15--19--19--19--19--17--17--17--17--|
-12------12------12------12------15------15------15------15--------|
-------------------------------------------------------------------|
-------------------------------------------------------------------|

All palm muted
------------------------------------------|
------------------------------------------|
------------------------------------------|
-0~---000000-00-00-00-000000--------------|
-0~---000000-00-00-00-000000--------------|
-0~---000000-00-00-00-000000--------------|

-----------------0---------------------------------0------|
-----------------0---------------------------------0------|
-----------------0---------[Porn Excerpt..]--------0------|
---------------------x2-----------------------------------|
-1111110-1111110--------------------------0000000~--------|
-0000000-0000000--------------------------0000000~--------|x2

Clean
-----------------------------------------------------------|
----15-----14--------------------15-14-11-10-15-14-11-10---|
------14-15--12-12-14------------14-15-12-11-14-15-12-11---|
---------------------12-13--x4-----------------------------|
-13--------------------------------------------------------|
--0--------------------------------------------------------|

Clean 
--------------------------------------------------|
----15-----14---------------15-14-11--------------|
------14-15--12-12-14-------14-15-12--------------|
---------------------12-13------------------------|
-13-----------------------------------------------|
--0-----------------------------------------------|

Distorted
-0-----------------------0---------|
-0-----------------------0---------|
-0-----------------------0---------|
-----------------------------------|
---0000000-0000-00000000-----------|
---0000000-0000-00000000-----------|Repeat till fade  out




OH YEAH!
The blighting masses 
Of creatures lusting for the taste of flesh 
Seep slowly 
In your chamber of rotting limbs 
Die quickly 
Fiendish cannibals deceased live again 
This is the act of ones who had 
Possessed normal lives 
May these bullets end our lives 
Before rising from these wounds 
Our veins collapse under the grey skin 
Rebuke us and aim for our fucking heads 
Twitching bastard torsos crawl up 
Your legs the contorted dead parade 
Organs on the streets the scene is grim 
A feast bathed in red damned and diseased 
The bite has numbed my eyes roll to 
White I desire nothing but blood and 
Bowels you should Have fired that shot when 
You had the chance teeth are moving through the layers 
Step through hand ripped disembowled butchered bodies 
This empire belongs to the fucking 
Dead palaces built from gore YEAH 
This empire belongs to the fucking 
Dead palaces built from gore OH 
This empire belongs to the fucking 
Dead palaces built from gore YEAH 
This empire belongs to the fucking 
Dead palaces built from gore OH!








----------
Want More Free Lessons?

Browse through the Archive!

-

PROBLEM WITH THIS TAB? | VIEW FULL SCREEN | PRINT