Lessons/Tabs are sorted alphabetically.

Tab Vault

PROBLEM WITH THIS TAB?   VIEW FULL SCREEN   PRINT

Teddy Geiger

Happier
Happier by Teddy Geiger




         Happier







Tuning: Standard

Intro

e |---x----6---x----6---4--7--|
B |---7----x---7----x---5--9--|
G |---8----8---8----8---6--9--|
D |---9----9---9----9---6--9--|
A |---9----9---9----9---4--7--|         
E |---x----x---x----x---x--x--|

Vere 1

e |--x---2---4----0---------|
B |--7---2---5----0---------|
G |--8---3---6----1---------|
D |--9---4---6----2---------|
A |--9---4---4----2---------|   
E |--x---2---x----0---------|

Down with the weapon I lost there
Someplace I could get back without you or this song
Miles from the fire we started
It went out with the breeze 
But I can't keep on questioning

Chorus

e |--x---6---x---6---4---0--x--0--|
B |--7---x---7---x---5---0--5--0--|
G |--8---8---8---8---6---1--6--1--|
D |--9---9---9---9---6---2--7--2--|
A |--9---9---9---9---4---2--7--2--|     
E |--x---x---x---x---x---0--x--0--|

Could I be happier in another life?
It wears me out
Oh could I? Could I be happier?
It wears me out 
It wears me out

Verse 2

So close to the weather behind us
We got by with a world full of wishes and hopes
Drowned in the water surround us 
We stayed out of the dark, we stayed out of the light

Chorus

Bridge

e |--4---0----x----2--------|
B |--5---0----7----2--------|
G |--6---1----8----3--------|
D |--6---2----9----4--------|
A |--4---2----9----4--------|   
E |--x---0----x----2--------|

So when the summer days are gone
And you feel so alone
The world keeps spinning on and on
We can't change the ways we've tried 
But there’s a chance to make it right
Right here in life tonight

Chorus










--------
Want More Free Lessons?

Browse through the Archive!

-

PROBLEM WITH THIS TAB? | VIEW FULL SCREEN | PRINT