Lessons/Tabs are sorted alphabetically.

Tab Vault

PROBLEM WITH THIS TAB?   VIEW FULL SCREEN   PRINT

Five Iron Frenzy

Oh Canada
Oh Canada by Five Iron Frenzy






                    Oh Canada








This is the intro:
 
|-------------------------------------|
|-------------------------------------|
|-------------------------------------|
|-------5-----------------------------|
|-----------5-5---2---3-3---7---5-5---|
|---3---------------------------------|
 
Then you do the ska part.  Mute the downstroke, don't mute the upstroke.
If you don't know how to do this, learn.
 
|---3---3---2---2---5---5---3---2---|
|---3---3---3---3---5---5---3---3---|
|---4---4---2---2---5---5---2---2---|
|---5---5---0---0---7---7---0---0---|
|-----------------------------------|
|-----------------------------------|
 
Then you do the next part:
 
|---------------------------------------|
|---------------------------------------|
|---------------------------------------|
|-----------4---4---2---2---5---4---4---|
|---5---5---2---2---0---0---3---2---2---|
|---3---3-------------------------------|
 
|-----------------------3---3---3---3---|
|---7---7---7---7---5---3---3---3---3---|
|---7---7---7---7---5---4---4---4---4---|
|---7---7---7---7---5---5---5---5---5---|
|---5---5---5---5---3---5---5---5---5---| 
|-----------------------3---3---3---3---|
 
|---------------------------3---3-------3---|
|---4---5---5---5---4---2---3---3---5---3---|
|---4---5---5---5---4---2---4---4---5---4---|
|---4---5---5---5---4---2---5---5---5---5---|
|---2---3---3---3---2---0---5---5---3---5---|
|---------------------------3---3-------3---|
 
|-----------------------3---3-------3---------------------------|
|---7---7---7---7---5---3---3---5---3---4---5---5---5---4---5---|
|---7---7---7---7---5---4---4---5---4---4---5---5---5---4---5---|
|---7---7---7---7---5---5---5---5---5---4---5---5---5---4---5---|
|---5---5---5---5---3---5---5---3---5---2---3---3---3---2---3---|
|-----------------------3---3-------3---------------------------|
 
|-----------------------------------|
|---7---7---7---7---7---7---7---7---|
|---7---7---7---7---7---7---7---7---|
|---7---7---7---7---7---7---7---7---|
|---5---5---5---5---5---5---5---5---|
|-----------------------------------|









--------------


version 2







-------------------------------------------------------------------R
-------------------------------------------------------------------E
-------------------------------------------------------------------P
--------------5----------------------------------------------------E
--------------------5--5--------2---3--3--------7---5--5-----0-----A
--------3----------------------------------------------------------T








---------
Want More Free Lessons?

Browse through the Archive!

-

PROBLEM WITH THIS TAB? | VIEW FULL SCREEN | PRINT