Lessons/Tabs are sorted alphabetically.

Tab Vault

PROBLEM WITH THIS TAB?   VIEW FULL SCREEN   PRINT

Strange Denial

Bad Religion
Strange Denial by Bad Religion





                           Strange Denial






INTRO: 
Guitar2: Bm A x4 G A Bm F# 
Guitar1: 
e--------------------|--------------------------------------------------------- 
B--------------------|--------------------------------------------------------- 
G--------------------|--------------------------4-4-4-4-4-4-4-4---------------- 
D-4-4-4-4-4-2-0------|--4-4-4-4-4-2-0-----------4-4-4-4-4-4-4-4---------------- 
A---------------4-0--|----------------4-0----4-2-2-2-2-2-2-2-2-4-5-4-5-4-5-4-5 
E--------------------|--------------------------------------------------------- 

VERSE: 

(palm-muted) Bm F# G D ADA 

(normal) Bm F# G D ADA 

pause... 

CHORUS: 

Guitar2: Bm F# G D A Bm F# G A Bm F# G D A Bm F# G D A 
Guitar1: 
e-------------3-5-5--------------3-5--------------3-5-5---------------3---5-5- 
B-------------3-7-5--------------3-5--------------3-7-5---------------3---7-5- 
G-7-6---------4-7-6---7-6--------4-6---7-6--------4-7-6---7-6---------4---7-6- 
D-----9-7-----5-7-7-------9-7----5-7-------9-7----5-7-7-------9-7-----5---7-7- 
A---------9---5-5-7-----------9--5-7-----------9--5-5-7-----------9---5---5-7- 
E-------------3---5--------------3-5--------------3---5---------------3-----5- 

Guitar2: Bm A Bm A Bm A Bm F# 
Guitar1: 
e-7---------------7-------------------7-----------10-9---9----9/7-7-9-10-10^12-10-9--- 
B---7-----7-7-------7-----7-7-----------7-----7-7-10-10----10-----------------------10 
G-----7-7h9-7-7-6-----7-7h9-7-7-----9-----7-7h9-7------------------------------------- 
D-------------9-7-------------9-/11--------------------------------------------------- 
A------------------------------------------------------------------------------------- 
E------------------------------------------------------------------------------------- 

...improv some solo - I don't really know it. Same chord pattern. 

The rest is pretty much the same. 



--------------------

version 2




Intro 
e|---------------------------------------------------------------------| 
B|---------------------------------------------------------------------| 
G|---------------------------------------------------------------------| 
D|--4-4-4-4--2--0----------4-4-4-4--2--0----------4-4-4-4--2--0--------| 
A|-----------------4--0-------------------4--0-------------------4--0--| 
E|---------------------------------------------------------------------| 

e|----------------------------------------------| 
B|----------------------------------------------| 
G|----------------------------------------------| 
D|--4-4-4-4--2--0----------4-4-4-4--2--0--------| 
A|-----------------4--0-------------------4--0--| 
E|----------------------------------------------| 

e|------------------------------------------| 
B|------------------------------------------| 
G|------------------------------------------| 
D|----4-4-4-4-4-4-4-4-----------------------| 
A|--42-2-2-2-2-2-2-2--4h5p4h5p4h5p4h5p4h5--| 
E|------------------------------------------| 

Verse 
e|-----------------------------------------| 
B|-----------------------------------------| 
G|-----------------------------------------| 
D|--4-4-4-4--------------------7-7--6/76--| 
A|--2-2-2-2--4-4-4-4--5-5-5-5--5-5--4/54--| 
E|-----------2-2-2-2--3-3-3-3--------------| 
...................p.m................... 

e|-----------------------------------------| 
B|-----------------------------------------| 
G|-----------------------------------------| 
D|--4-4-4-4--------------------7-7--6/76--| 
A|--2-2-2-2--4-4-4-4--5-5-5-5--5-5--4/54--| 
E|-----------2-2-2-2--3-3-3-3--------------| 

Chorus 
e|-----------------------------------------------------------| 
B|-----------------------------------------------------------| 
G|--7--6------------------------7--6-------------------------| 
D|--------9--7----------7-7-----------9--7-------------------| 
A|--------------9--5-5--5-5--7--------------9--5-5-5-5--7-7--| 
E|-----------------3-3-------5-----------------3-3-3-3--5-5--| 

e|--------------------------------------------------------------------------------| 
B|--------------------------------------------------------------------------------| 
G|--7--6------------------------7--6----------------------------------------------| 
D|--------9--7----------7-7-----------9--7----------------------7-7-7-7-----------| 
A|--------------9--5-5--5-5--7--------------9--5-5-5-5-5-5-5-5--5-5-5-5--7-7-7-7--| 
E|-----------------3-3-------5-----------------3-3-3-3-3-3-3-3-----------5-5-5-5--| 

Solo 
e|--7----------------------7-------------------------| 
B|-----7-------7--7-----------7-------7--7-----------| 
G|--------7--7h9--7--7--6--------7--7h9--7--7-----9--| 
D|-------------------9--7-------------------9/11-----| 
A|---------------------------------------------------| 
E|---------------------------------------------------| 

e|--7----------------10---9--9------9/7-7--9--10-10^12--10--9-------------| 
B|-----7-------7--7--10--10-----10-----------------------------10/12~~~~--| 
G|--------7--7h9--7-------------------------------------------------------| 
D|------------------------------------------------------------------------| 
A|------------------------------------------------------------------------| 
E|------------------------------------------------------------------------| 

e|----| 
B|----| 
G|----| Brian's Improv Solo 
D|----| Its really just along the same lines, 
A|----| Octaved up the fretboard 
E|----| 

Outro 
e|--7----------------10---9--9------9/7-7--9--10-10^12--10--9-------------| 
B|-----7-------7--7--10--10-----10-----------------------------10/12~~~~--| 
G|--------7--7h9--7-------------------------------------------------------| 
D|------------------------------------------------------------------------| 
A|------------------------------------------------------------------------| 
E|------------------------------------------------------------------------| 






---------
Want More Free Lessons?

Browse through the Archive!

-

PROBLEM WITH THIS TAB? | VIEW FULL SCREEN | PRINT