Lessons/Tabs are sorted alphabetically.

Tab Vault

PROBLEM WITH THIS TAB?   VIEW FULL SCREEN   PRINT

Michael Nyman

Time Lapse
Time Lapse by Michael Nyman




                            Time Lapse 





 
Tuning: Standard
 
Melody 1:
e|-------|--------|--------|--------|--------|--------|--------|
B|-------|--------|--------|-----0~~|-1~~-3~~|-1~~----|-0~~-0~~|
G|-------|-0~~-2~~|-----0~~|-2~~----|--------|--------|--------|
D|2~~-4~~|--------|-4~~----|--------|--------|-----4~~|--------|
A|-------|--------|--------|--------|--------|--------|--------|
E|-------|--------|--------|--------|--------|--------|--------|
 
Melody 2:
e|---------|----------|----------|----------|----------|----------|----------|------|
B|---------|----------|----------|--------0~|----------|----------|--------0~|-0~~~~|
G|0~~-2~-0~|~-2~-0~-2~|-----0~---|--0~-2~---|----------|-----0~-2~|-3~~-3~---|------|
D|---------|----------|-4~~----4~|~---------|-2~~-4~-2~|~-4~------|----------|------|
A|---------|----------|----------|----------|----------|----------|----------|------|
E|---------|----------|----------|----------|----------|----------|----------|------|
 
Melody 3:
e|3-2-0----0-2-3|-3-2-0----0-2-3|-2-0--------0-2|-2-0--------0-2|-0------------0|-2-0-2-3~-2~-0|
B|------0~------|---------------|-----3----3----|-----3----3----|---3-1----1-3--|--------------|
G|--------------|-------2~------|-------2~------|-------0~------|-------0~------|--------------|
D|--------------|---------------|---------------|---------------|---------------|--------------|
A|--------------|---------------|---------------|---------------|---------------|--------------|
E|--------------|---------------|---------------|---------------|---------------|--------------|
 
e|-2-0-2-3~-2~-0|-2-7-7-7~-7-7-7|
B|--------------|---------------|
G|--------------|---------------|
D|--------------|---------------|
A|--------------|---------------|
E|--------------|---------------|
 
Ground Bass
G|---------------|-----------|---------------|-----------|-----------|-----------|-----------|-----------|
D|---------------|-----------|---------------|-----------|-----------|-----------|-----------|-----------|
A|---------------|-----------|---------------|-----------|-----------|-----------|-----------|-----------|
E|12~-12~-12~-12~|8~-8~-8~-8~|10~-10~-10~-10~|7~-7~-7~-7~|8~-8~-8~-8~|5~-5~-5~-5~|6~-6~-6~-6~|7~-7~-7~-7~|
 







 
| ~    Crotchet
| ~~   Minim
| ~|~  Slurred Minim over end of bar
| ~~~~ Semibreve







----------------
Want More Free Lessons?

Browse through the Archive!

-

PROBLEM WITH THIS TAB? | VIEW FULL SCREEN | PRINT