GUITAR TABS: 0-9ABCDEFGHIJKLMNOPQRSTUVWXYZ

Lessons/Tabs are sorted alphabetically.

Willi James Guitar Lessons

PROBLEM WITH THIS TAB?   VIEW FULL SCREEN   PRINT

Paganini 16th Caprice in G Minor

Paganini 16th Caprice in G Minor







                 Paganini 16th Caprice in G Minor






E|--------3--5-6--2-5--3--------|-------------10-8-------------|
B|------3----------------3------|------------------10-7--------|
G|---3----------------------3---|---2----2--------------7------|
D|-5--------------------------5-|-4----1----0-------------10-7-|
A|------------------------------|------------------------------|
E|------------------------------|------------------------------|




E|-------------8----------------|-------------------------13p10-----|
B|-----------7---10-7-----------|--------------------12---------12--|
G|--------8------------8--------|---7----7---------12---------------|
D|---7-10----------------10-8-7-|-8----7--------12------------------|
A|-9----------------------------|----------10h14--------------------|
E|------------------------------|-----------------------------------|




E|-8-----------------------11p8------|-6----------------------8-------|
B|---8-----------------10--------10--|---6---------11-10-8------10----|
G|------8-----------10---------------|------7----------------------11-|
D|--------10-----10------------------|--------8-----------------------|
A|-------------12--------------------|----------------------9---------|
E|-----------8-----------------------|-----------6--------------------|




E|--------------------------------|----------10-----14-10---------------|
B|-11p8----11---11---11---11---11-|----10-------10--------10------------|
G|--------------------------------|-------11-----------------11---------| REPEAT
D|--------------------------------|-----------------------------12-10---|
A|------10----8----6----5----4----|-10--------------------------------12|
E|--------------------------------|-------------------------------------|




E|------------------------------|------------------------------|
B|-----------6-9--8-6-------9-8-|-6----------------------------|
G|--------7------------7--------|---8--7-5---------------------|
D|---5--9----------------9------|-------------8----10---8----7-|
A|------------------------------|------------------------------|
E|-7----------------------------|-----------8---10----8----6---|




E|------------------------------|--------------------------------|
B|-------------7--6---------7-6-|-----------------------11-------|
G|--------5--8------8--5--------|-8-7--5---------------------10--|
D|---3--7----------------7------|--------8----7----10------------|
A|------------------------------|---------------------8----------|
E|-5----------------------------|-----------6---10--------10-----|




E|--------------------------------|---------------------------13h18-|
B|-10p8-------8p6-----------------|------------------------15-------|
G|---------------------10p8-------|-8p7-----------------15----------|
D|--------------------------------|-------------8--7h10-------------|
A|-------6-10------5-8------------|-----------8---------------------|
E|---------------------------8-11-|------6-10-----------------------|




E|-------------------------------------|-------------------------------------|
B|-------14-------------14-------------|-------------------------------------|
G|-14-15----15-------------15----------|-------------------------------------|
D|-------------17-15-14-------17-15-14-|-17-15-14-16-15-14-17-15-14-15-13----|
A|-------------------------------------|----------------------------------15-|
E|-------------------------------------|-------------------------------------|




E|--------------------------------------|-------12-14-13-12-15-13-12-13-------|
B|--------------------------------------|-------------------------------16-13-|
G|--------------------------------------|-------------------------------------|
D|-12-----------------------------------|-------------------------------------|
A|----13-12-14-13-12-15-13-12-13--------|-------------------------------------|
E|-------------------------------14-12--|-15-13-------------------------------|




E|-------------------------------------|------------------------------------|
B|-15----------------------------------|------------------------------------|
G|----15-14-16-15-14-17-15-14-15-------|------------------------------------|
D|-------------------------------16-14-|-17-15-14-16-15-13------------------|
A|-------------------------------------|-------------------15-12------------|
E|-------------------------------------|-------------------------13-12-11-8-|




E|-------------------------------|----8--5--8-----8-----8-----8-----8--|
B|-------------------------------|-------------6-----------------------|
G|-----------6-7-----------------|-------------------8-----5-----------|
D|--------8-------7-10-8---------|-------------------------------7-----|
A|------8-----------------8------|-------------------------------------|
E|-6-10---------------------10-8-|-5-----------------------------------|




E|-----------------------------------|----10--6--10-----10-----10-----10-----10-|
B|------------3--4-----3-------------|---------------6--------------------------|
G|------2--5--------4-----5--2-------|----------------------7-------------------|
D|-----------------------------------|-0---------------------------8------------|
A|-3h6--------------------------6--3-|------------------------------------8-----|
E|-----------------------------------|------------------------------------------|




E|----11-10-11----10-9-10---9--8--9-|----10-9-10-----8--7-8-----6--5-6-|
B|----------------------------------|----------------------------------|
G|----------------------------------|----------------------------------|
D|----------------------------------|----------------------------------|
A|-10----------8----------7---------|-8-----------6----------5---------|
E|----------------------------------|----------------------------------|




E|-----------------------------6h11-|----------------------------8h11--|
B|-----------------------8h11-------|-----------------------9h13-------|
G|-----------------8h12-------------|------------5h8--8h13-------------|
D|------5h8--8h11-------------------|------6h10------------------------|
A|-6h10-----------------------------|-6h11-----------------------------|
E|----------------------------------|----------------------------------|




E|------------------------------8h11--|-10-13----------10----------------------|
B|-----------------------10h13--------|-------10-13-11-------10----11----------|
G|-------------5h8--8h14--------------|-------------------11----12---------10--|
D|-------7h10-------------------------|--------------------------------12------|
A|-6h12-------------------------------|----------------------------------------|
E|------------------------------------|----------------------------------------|




E|------------------------------------|-------------------------------------|
B|----------------11-10-9-------------|-------------------------------------|
G|----12-------------------12-11-10-9-|-12-10-------------------------------|
D|-14-----9-12-10---------------------|--------12-8-------------------------|
A|------------------------------------|--------------10-7--9--8--7-8--6-----|
E|------------------------------------|----------------------------------8--|




E|------------------------------------|----------------------------------|
B|----11-10-9-------------------------|----------------------------------|
G|-------------12-11-10-9-12-11-10-9--|-12-11-10-9--8-7--5---------------|
D|------------------------------------|---------------------8--7-6--5-4--|
A|------------------------------------|----------------------------------|
E|-6----------------------------------|----------------------------------|



3



E|----6--------------------------------|---------------------------10-----14--|
B|----------8------8-------------------|----------------7-----10-7----10------|
G|-----------------------7-----5-----3-|----------7--------7------------------|
D|-5-----------------------------------|----4--7-----7------------------------|
A|-------5-----------------------------|-5------------------------------------|
E|-------------8------6-----5-----3----|--------------------------------------|




E|----8-------------------------------------|----------------3-----6-----10-----15-|
B|----------10------------------------------|----------3--------3-----8------11----|
G|------------------11------8------7-----5--|----3--------3------------------------|
D|-7----------------------------------------|-------5------------------------------|
A|-------6----------------------------------|--------------------------------------|
E|--------------10------8------6------5-----|-3------------------------------------|




E|-13p10-----------------------------|-------------------------------------|
B|-------12----12p8------------------|-------------------------------------|
G|----------12------10---------------|---------------------------------5---|
D|---------------------12-9----------|---------------5--4--7--5--8--7------|
A|--------------------------10-8-----|----6--5--8--6-----------------------|
E|-------------------------------10--|-8-----------------------------------|




E|----------------------------5-----6--|-----8-----10---------------------------|
B|----------------7--5--8--7-----8-----|-10-----11-------11-----13----10----11--|
G|----7--5--8--7-----------------------|--------------12-----14----10----12-----|
D|-8-----------------------------------|----------------------------------------|
A|-------------------------------------|----------------------------------------|
E|-------------------------------------|----------------------------------------|




E|-----------------------------------|---------------------------------|
B|----8----10----6-----8-----4-----6-|----3-----4-----------2h3h4------|
G|-8----10----7-----8-----5-----7----|-3-----5-----2h3h4h5---------5---|
D|-----------------------------------|---------------------------------|
A|-----------------------------------|---------------------------------|
E|-----------------------------------|---------------------------------|




E|----10------8------6-------------------|----------------------------------|
B|-------------------------8--7----------|----11-10-9--8-7--6-5----------7--|
G|---------------------------------------|-----------------------8-7--------|
D|-8------7------5-----------------------|----------------------------------|
A|----------------------5----------------|----------------------------5-----|
E|-------------------------------8--6--5-|-3--------------------------------|



Want More Free Lessons?

Browse through the Archive!

PROBLEM WITH THIS TAB? | VIEW FULL SCREEN | PRINT

Fly Roundtrip for $149 or less. Discount Flights GUARANTEED. Book Now!Philadelphia hockey tickets