Lessons/Tabs are sorted alphabetically.

Tab Vault

PROBLEM WITH THIS TAB?   VIEW FULL SCREEN   PRINT

Bend My Knee

Willow Creek
Bend My Knee by Willow Creek




                             Bend My Knee 






C Dm F G C Dm F G
(Verse I)
C       Dm       F           G       C              Dm          F          G
You are the only God, who could build an ocean,
C       Dm       F           G       C              Dm          F          G
You are the only God, who could fill a heart.
C       Dm       F           G       C              Dm          F          G
You are the only Path that can lead to Heaven.
C       Dm       F           G       C              Dm                     F          G
You are the only One who can save me from Hell.  And I am here to tell You loud and clear!

(Chorus)
|-----------------------------------------------------------------------------|
|-----------------------------------------------------------------------------|
|-----------------------------------------------------------------------------|
|------2-3--------------1-3-4-5----------------------2-3----------1-1-----3---|
|-3-5-------------------------------------------3-5---------------------------|
|-----------------------------------------------------------------------------|
I’m not gonna bend my knee to anybody but you; I’m not gonna’ bend my knee, Oh No

|-----------------------------------------------------------------------------|
|-----------------------------------------------------------------------------|
|-----------------------------------------------------------------------------|
|------2-3--------------1-3-4-5---------------------2-3------------1-1-----3--|
|-3-5-------------------------------------------3-5---------------------------|
|-----------------------------------------------------------------------------|
I’m not gonna bend my knee, I answer only to You, I’m not gonna bend my knee to 
anybody but You!                  

C Dm F G C Dm F G
                  Anybody but You!

(Verse II)
C       Dm       F           G       C              Dm          F          G
You are the only God who can fix the broken.
C       Dm       F           G      C              Dm           F         G
You are the only One who can heal my hurts, Oh Yeah!
C       Dm       F           G      C              Dm           F         G
You are the only Love free of all conditions,
C       Dm       F            G      C              Dm                F         G
You are the only One who deserves my life. And I am here to tell You loud and clear!

(Chorus)

(Verse III)
C       Dm       F           G       C              Dm          F          G
You are the only One who is wholly Holy.
C       Dm       F           G      C              Dm           F         G
You are the only Power that can change my heart.
C       Dm       F           G      C              Dm           F         G
You are the only God I will praise forever,
C       Dm       F            G      C              Dm                F         G
You are the only God I will worship now.  And I am here to tell You loud and clear!

(Chorus)
(Chorus) A-cappella (Drums only)
(Chorus)
C Dm F G C Dm F G               C Dm F G (Repeat & Fade)
                  Anybody but You!











---------
Want More Free Lessons?

Browse through the Archive!

PROBLEM WITH THIS TAB? | VIEW FULL SCREEN | PRINT

CyberChimps Professional WordPress ThemesPureVPN - Internet Privacy is our Priority