Lessons/Tabs are sorted alphabetically.

Tab Vault

PROBLEM WITH THIS TAB?   VIEW FULL SCREEN   PRINT

Beautiful People

Marilyn Manson
Beautiful People by Marilyn Manson






                                Beautiful People
                               






Drop D tuning

D,A,D,G,B,E.

Use heavy distortion through the whole song.

The intro of the song go something like this, strums up and down for the mute part


E-----------------------------------------------------------
B-----------------------------------------------------------
G-----------------------------------------------------------
D--xxxxx--xxxxx--xxxxx--xxxxx--xxxxx--xxxxx--xxxxx--xxxxx---
A--xxxxx--xxxxx--xxxxx--xxxxx--xxxxx--xxxxx--xxxxx--xxxxx---
D--xxxxx--xxxxx--xxxxx--xxxxx--xxxxx--xxxxx--xxxxx--xxxxx---


Then after that you play this.

E------------------------------------------
B------------------------------------------
G------------------------------------------
D---0--3-0-------0--3-0-------0--3-0-------
A---0--3-0-------0--3-0-------0--3-0-------
D---0--3-0-------0--3-0-------0--3-0-------

E-----------------------------------------------------------------
B-----------------------------------------------------------------
G-----------------------------------------------------------------
D---0--3-0------0--6--0--6--0----0--6--0--6--0--------------------
A---0--3-0------0--6--0--6--0----0--6--0--6--0--------------------
D---0--3-0------0--6--0--6--0----0--6--0--6--0---Play this 4x-----

Bridge

E-----------------------------------------------------------------
B-----------------------------------------------------------------
G-----7--7--7--7------6--6--6--6-----5--5--5--5------4--4--4--4---
D-----------------------------------------------------------------
A-----5--5--5--5------4--4--4--4-----3--3--3--3------2--2--2--2---
D-----------------------------------------------------------------
 Repeat 2x



Chorus

E-----------------------------------------------------------
B-----------------------------------------------------------
G-----------------------------------------------------------
D--0--6-0-6-0-----0--6-0-6-0-----0--3-0---------------------
A--0--6-0-6-0-----0--6-0-6-0-----0--3-0---------Repeat 4x---
D--0--6-0-6-0-----0--6-0-6-0-----0--3-0---------------------


Then after that you play this, It'll help if you strums up and down for the 
mute parts

E--------------------------------------------------
B--------------------------------------------------
G--------------------------------------------------
D---xxxx-3p0------xxxx--3--0-----------------------
A---xxxx-3p0--or--xxxx--3--0--------Repeat 7x------
D---xxxx-3p0------xxxx--3--0-----------------------

E-------------------------------------------------------------
B-------------------------------------------------------------
G-------------------------------------------------------------
D--0--6-0-6-0-----0--6-0-6-0-----0--3-0-----------------------
A--0--6-0-6-0-----0--6-0-6-0-----0--3-0---------Repeat 4x-----
D--0--6-0-6-0-----0--6-0-6-0-----0--3-0-----------------------

Brigde 2

E----------------------------------------------------------------
B----------------------------------------------------------------
G-----7--7--7--7------6--6--6--6-----5--5--5--5------4--4--4--4--
D----------------------------------------------------------------
A-----5--5--5--5------4--4--4--4-----3--3--3--3------2--2--2--2--
D----------------------------------------------------------------
 Repeat 2x


E-----------------------------------------------------------
B-----------------------------------------------------------
G-----------------------------------------------------------
D--0--6-0-6-0-----0--6-0-6-0-----0--3-0---------------------
A--0--6-0-6-0-----0--6-0-6-0-----0--3-0---------Repeat 4x---
D--0--6-0-6-0-----0--6-0-6-0-----0--3-0---------------------


E-------------------------------------------------
B-------------------------------------------------
G-------------------------------------------------
D---xxxx-3p0------xxxx--3--0----------------------
A---xxxx-3p0--or--xxxx--3--0--------Repeat 3x-----
D---xxxx-3p0------xxxx--3--0----------------------


E------------------------------------------------------------
B------------------------------------------------------------
G------------------------------------------------------------
D--0--6-0-6-0-----0--6-0-6-0-----0--3-0----------------------
A--0--6-0-6-0-----0--6-0-6-0-----0--3-0---------Repeat 4x----
D--0--6-0-6-0-----0--6-0-6-0-----0--3-0----------------------

This part a little different, listen to the song carefully and you should  
be able to hear it

E-----------------------------------------------
B-----------------------------------------------
G-----------------------------------------------
D--0--6-0-6-0-----0--6-0-6-0-----0--3-0---------
A--0--6-0-6-0-----0--6-0-6-0-----0--3-0---------
D--0--6-0-6-0-----0--6-0-6-0-----0--3-0---------

E--------------------------------------------------
B--------------------------------------------------
G--------------------------------------------------
D--0--6-0-6-0----0--6-0-6-0-6-5-3-0----------------
A--0--6-0-6-0----0--6-0-6-0-6-5-3-0----Repeat 2x---
D--0--6-0-6-0----0--6-0-6-0-6-5-3-0----------------

Then after that part just keep playing this part until the end of the song


E---------------------------------------------------
B---------------------------------------------------
G---------------------------------------------------
D--0--6-0-6-0----0--6-0-6-0-6-5-3-0-----------------
A--0--6-0-6-0----0--6-0-6-0-6-5-3-0----Repeat 4x----
D--0--6-0-6-0----0--6-0-6-0-6-5-3-0-----------------









I don't want you and I don't need you don't bother to resist, I'll beat you It's not your fault that you're always wrong the weak ones are there to justify the strong the beautiful people, the beautiful people, It's all relative to the size of your steeple you can't see the forest for the trees, and you can't smell your own shit on your knees hey you, what do you see? something beautiful, something free? hey you, are you trying to be mean? if you live with apes, man, it's hard to be clean there's no time to discriminate, hate every motherfucker that's in your way the worms will live in every host it's hard to pick which one they eat most the horrible people, the horrible people it's as anatomic as the size of your steeple capitalism has made it this way, old-fashioned fascism will take it away hey you, what do you see? something beautiful, something free?




hey you, are you trying to be mean? if you live with apes man it's hard to be clean there's no time to discriminate, hate every motherfucker that's in your way









---------------

version 2








Tune bottom E to D

Obviously, heavy distortion throughout

e|---------------------------------------------------------------------------|
B|---------------------------------------------------------------------------|
G|---------------------------------------------------------------------------|
D|---0--3--0----------------------0--3--0-------------------------0--3--0----|
A|---0--3--0----------------------0--3--0-------------------------0--3--0----|
D|---0--3--0----------------------0--3--0-------------------------0--3--0----|

e|---------------------------------------------------------------------------|
B|---------------------------------------------------------------------------|
G|---------------------------------------------------------------------------|
D|-----0--6--0--6--0-------0--6--0--6--0-------0--3--0-----------------------| X4
A|-----0--6--0--6--0-------0--6--0--6--0-------0--3--0-----------------------|
D|-----0--6--0--6--0-------0--6--0--6--0-------0--3--0-----------------------|

e|---------------------------------------------------------------------------|
B|---------------------------------------------------------------------------|
G|-----77777---------66666---------55555---------44444-----------------------|
D|---------------------------------------------------------------------------| X 2
A|-----55555---------44444---------33333---------22222-----------------------|
D|---------------------------------------------------------------------------|

e|---------------------------------------------------------------------------|
B|---------------------------------------------------------------------------|
G|---------------------------------------------------------------------------|
D|-----0--6--0--6--0-------0--6--0--6--0-------0--3--0-----------------------| X4
A|-----0--6--0--6--0-------0--6--0--6--0-------0--3--0-----------------------|
D|-----0--6--0--6--0-------0--6--0--6--0-------0--3--0-----------------------|

e|---------------------------------------------------------------------------|
B|---------------------------------------------------------------------------|
G|---------------------------------------------------------------------------|
D|-----0030------------------------------------------------------------------| X 8
A|-----0030------------------------------------------------------------------|During “ooohahhh”
D|-----0030------------------------------------------------------------------|


e|---------------------------------------------------------------------------|
B|---------------------------------------------------------------------------|
G|---------------------------------------------------------------------------|
D|-----0--6--0--6--0-------0--6--0--6--0-------0--3--0-----------------------| X4
A|-----0--6--0--6--0-------0--6--0--6--0-------0--3--0-----------------------|
D|-----0--6--0--6--0-------0--6--0--6--0-------0--3--0-----------------------|

e|---------------------------------------------------------------------------|
B|---------------------------------------------------------------------------|
G|-----77777---------66666---------55555---------44444-----------------------|
D|---------------------------------------------------------------------------| X 2
A|-----55555---------44444---------33333---------22222-----------------------|
D|---------------------------------------------------------------------------|

e|---------------------------------------------------------------------------|
B|---------------------------------------------------------------------------|
G|---------------------------------------------------------------------------|
D|-----0--6--0--6--0-------0--6--0--6--0-------0--3--0-----------------------| X 4
A|-----0--6--0--6--0-------0--6--0--6--0-------0--3--0-----------------------|
D|-----0--6--0--6--0-------0--6--0--6--0-------0--3--0-----------------------|

e|---------------------------------------------------------------------------|
B|---------------------------------------------------------------------------|
G|---------------------------------------------------------------------------|
D|-----0030------------------------------------------------------------------| X 4
A|-----0030------------------------------------------------------------------|During “ooohahhh”
D|-----0030------------------------------------------------------------------|


e|---------------------------------------------------------------------------|
B|---------------------------------------------------------------------------|
G|---------------------------------------------------------------------------|
D|-----0--6--0--6--0-------0--6--0--6--0-------0--3--0-----------------------| X 12
A|-----0--6--0--6--0-------0--6--0--6--0-------0--3--0-----------------------|Until end of song
D|-----0--6--0--6--0-------0--6--0--6--0-------0--3--0-----------------------|










I don't want you and I don't need you don't bother to resist, I'll beat you It's not your fault that you're always wrong the weak ones are there to justify the strong the beautiful people, the beautiful people, It's all relative to the size of your steeple you can't see the forest for the trees, and you can't smell your own shit on your knees hey you, what do you see? something beautiful, something free? hey you, are you trying to be mean? if you live with apes, man, it's hard to be clean there's no time to discriminate, hate every motherfucker that's in your way the worms will live in every host it's hard to pick which one they eat most the horrible people, the horrible people it's as anatomic as the size of your steeple capitalism has made it this way, old-fashioned fascism will take it away hey you, what do you see? something beautiful, something free?




hey you, are you trying to be mean? if you live with apes man it's hard to be clean there's no time to discriminate, hate every motherfucker that's in your way










---------------

version 3









Guitar



Low to high: D, A, D, G, B, E.


INTRO

e)--------------------------------------------------------------------------|
b)--------------------------------------------------------------------------|
g)--------------------------------------------------------------------------|
d)--x--x--x--x--x---------------0----3---0-----0----3---0-------0---3---0---|
a)--x--x--x--x--x----repeat-----0----3---0-----0----3---0-------0---3---0---|
D)--x--x--x--x--x---------------0----3---0-----0----3---0-------0---3---0---|


----------------------------------------------------------------------------|
----------------------------------------------------------------------------|
----------------------------------------------------------------------------|
-0--3---0------0--6--0--6--0-----------0--6--0--6--0------------------------|
-0--3---0------0--6--0--6--0-----------0--6--0--6--0------repeat 4 times----|
-0--3---0------0--6--0--6--0-----------0--6--0--6--0------------------------|



Verse (bass only) Second part of verse guitar in

---------------------------------------------------------------------------|
---------------------------------------------------------------------------|
---------------------------------------------------------------------------|
--x--x--x--x--x--x--x--x--x--x--x--x--x--x---------------------------------|
--x--x--x--x--x--x--x--x--x--x--x--x--x--x-----------repeat----------------|
--x--x--x--x--x--x--x--x--x--x--x--x--x--x---------------------------------|


Bridge

----------------------------------------------------------------------------|
----------------------------------------------------------------------------|
--7--7--7--7------6--6--6------5--5--5-----4--4--4-----repeat-2-times-------|
----------------------------------------------------------------------------|
--5--5--5--5------4--4--4------3--3--3-----2--2--2--------------------------|
----------------------------------------------------------------------------|



Chorus

-----------------------------------------------------------------------------|
-----------------------------------------------------------------------------|
-----------------------------------------------------------------------------|
--0--6--0--6--0-----------0--6--0--6--0---------0--3--0----------------------|
--0--6--0--6--0-----------0--6--0--6--0---------0--3--0-----repeat4-times----|
--0--6--0--6--0-----------0--6--0--6--0---------0--3--0----------------------|



Riff 1

Then When is ah,ah

-----------------------------------------------------------------------------|
-----------------------------------------------------------------------------|
-----------------------------------------------------------------------------|
-----------0--0--0--3--0-----------------0--0--0--3--0-----------------------|
-Ah,ah-----0--0--0--3--0-------Ah,ah,----0--0--0--3--0-----------------------|
-----------0--0--0--3--0-----------------0--0--0--3--0-----------------------|



Second Verse (repeat 2 times )

--------------------------------------------------------------------------|
--------------------------------------------------------------------------|
--7------hold---------------(7)--(7)--(7)--(7)---harmonics----------------|
--------------0--0--0--3--0-------------------------------0--0--0--3--0---|
--------------0--0--0--3--0-------------------------------0--0--0--3--0---|
--------------0--0--0--3--0-------------------------------0--0--0--3--0---|
Then hold harmonics

--------------------------------------------------------------------------|
--------------------------------------------------------------------------|
------7(7)--(7)--(7)--(7)-----harmonics-----------------------------------|
--------------------------------------------------------------------------|
--------------------------------------------------------------------------|
--------------------------------------------------------------------------|




intro
verse
bridge
chorus
riff 1(ah,ah,)
verse
chorus
bridge
chorus ( With out vocie)
riff 1 (ah,ah)
chorus 4x









I don't want you and I don't need you don't bother to resist, I'll beat you It's not your fault that you're always wrong the weak ones are there to justify the strong the beautiful people, the beautiful people, It's all relative to the size of your steeple you can't see the forest for the trees, and you can't smell your own shit on your knees hey you, what do you see? something beautiful, something free? hey you, are you trying to be mean? if you live with apes, man, it's hard to be clean there's no time to discriminate, hate every motherfucker that's in your way the worms will live in every host it's hard to pick which one they eat most the horrible people, the horrible people it's as anatomic as the size of your steeple capitalism has made it this way, old-fashioned fascism will take it away hey you, what do you see? something beautiful, something free?




hey you, are you trying to be mean? if you live with apes man it's hard to be clean there's no time to discriminate, hate every motherfucker that's in your way










---------------

version 4








Drop-D tuning

-Intro-

   [studio efx] drums
D|-------------------------------XXXXX---XXXXX---|  [play this 4      
A|-------------------------------XXXXX---XXXXX---|   times during
D|-------------------------------XXXXX---XXXXX---|   intro]

     -Rest-
D|------------676----676----676----676----
A|------------676----676----676----676----
D|------------676----676----676----676----

    -Main Riff-
D|--67676--67676--454--|
A|--67676--67676--454--|  [4 times]
D|--67676--67676--454--|

[Verse 1]

[no guitar]

   -Bass Line- 
G|---------------------------------------------|
D|---------------------------------------------|
A|---------------------------------------------|
D|----45454--45454--232-----45454--45454--232--|
      I don't want  you and I don't need  you
     Don't bother to resist or I'll beat  you
   It's not your fault that you're always wrong
     The weak are there to  justify the   strong

 [guitar]
D|--X--X-X-X-X---X-X-----X--X-X-X-X---X-X--
A|--X--X-X-X-X---X-X-----X--X-X-X-X---X-X--
D|--X--X-X-X-X---X-X-----X--X-X-X-X---X-X--
  the beautiful people the beautiful people
  it's all relative to the size of your steeple
  you can't see the forest for the trees and
  you can't smell your own shit on your knees

 [chorus]
D|--67676--67676--454----67676--67676--454--|
A|--67676--67676--454----67676--67676--454--|
D|--67676--67676--454----67676--67676--454--|
    Hey!   You!       What do you see?
    Something beautiful, something free?
    Hey!   You!   Are you trying to be mean? If 
you live with the apes man its hard to be clean

 [Interlude]
 [Bass] -let each note ring-
D|--------------------------------------|
A|--------------------------------------|
D|--7----------------\6-----------------|
  There's no time to discriminate hate

D|--------------------------------------|
A|--------------------------------------| 
D|-\4-----------------------/9----------|
   Every motherfucker that's in your way

 [chorus]
D|--67676--67676--454----67676--67676--454--|
A|--67676--67676--454----67676--67676--454--|
D|--67676--67676--454----67676--67676--454--|
    Hey!   You!       What do you see?
    Something beautiful, something free?
    Hey!   You!   Are you trying to be mean? If 
you live with the apes man its hard to be clean
 
 [verse 2]

D|------XXX76------XXX76-----|
A|------XXX76------XXX76-----|
D|------XXX76------XXX76-----|
   Ahhhh      Ahhhh

D|----------------------------------------XXX76|
A|----------------------------------------XXX76|
D|----------------------------------------XXX76|
         The worms will live in every host     
Its hard to pick the one they eat the most
   The horrible people the horrible people
Its as anatomic as the size of your steeple
           Capitalism has made it this way
    Old-fashioned facism will take it away

 [chorus]
D|--67676--67676--454----67676--67676--454--|
A|--67676--67676--454----67676--67676--454--|
D|--67676--67676--454----67676--67676--454--|
    Hey!   You!       What do you see?
    Something beautiful, something free?
    Hey!   You!   Are you trying to be mean? If 
you live with the apes man its hard to be clean 

 [Interlude]
 [Bass] -let each note ring-
D|--------------------------------------|
A|--------------------------------------|
D|--7----------------\6-----------------|
  There's no time to discriminate hate

D|--------------------------------------|
A|--------------------------------------| 
D|-\4-----------------------/9----------|
   Every motherfucker that's in your way 

 [chorus]
D|--67676--67676--454----67676--67676--454--|
A|--67676--67676--454----67676--67676--454--|
D|--67676--67676--454----67676--67676--454--|
    Hey     Hey          Hey     Hey       [x4]


D|----------------------------------------XXX76|
A|----------------------------------------XXX76|
D|----------------------------------------XXX76|
  the beautiful people the beautiful people
  the beautiful people the beautiful people
  the beautiful people the beautiful people
  
D|-----------------------------------XXXXXXX
A|-----------------------------------XXXXXXX
D|-----------------------------------XXXXXXX
the beautiful people the beautiful people

 [chorus] 
D|--67676--67676--454----67676--67676--454--|
A|--67676--67676--454----67676--67676--454--|
D|--67676--67676--454----67676--67676--454--|
    Hey!   You!       What do you see?
    Something beautiful, something free?
    Hey!   You!   Are you trying to be mean? If 
you live with the apes man its hard to be clean 

D|--67676--67676--454----67676--676768\7\6\4--|
A|--67676--67676--454----67676--676768\7\6\4--|
D|--67676--67676--454----67676--676768\7\6\4--|
    Hey!   You!       What do you see?
    Something beautiful, something free?
    Hey!   You!   Are you trying to be mean? If 
you live with the apes man its hard to be clean 

 [Outro]
D|--67676--676768\7\6\4--67676--676768\7\6\4--|
A|--67676--676768\7\6\4--67676--676768\7\6\4--|
D|--67676--676768\7\6\4--67676--676768\7\6\4--|
   the beautiful people the beautiful people
   the beautiful people the beautiful people
   the beautiful people the beautiful people
   the beautiful people the beautiful people











I don't want you and I don't need you don't bother to resist, I'll beat you It's not your fault that you're always wrong the weak ones are there to justify the strong the beautiful people, the beautiful people, It's all relative to the size of your steeple you can't see the forest for the trees, and you can't smell your own shit on your knees hey you, what do you see? something beautiful, something free? hey you, are you trying to be mean? if you live with apes, man, it's hard to be clean there's no time to discriminate, hate every motherfucker that's in your way the worms will live in every host it's hard to pick which one they eat most the horrible people, the horrible people it's as anatomic as the size of your steeple capitalism has made it this way, old-fashioned fascism will take it away hey you, what do you see? something beautiful, something free?




hey you, are you trying to be mean? if you live with apes man it's hard to be clean there's no time to discriminate, hate every motherfucker that's in your way









---------------

version 5






You gotta tune your guitar in Drop-D, and have a big distortion crunch, I 
think overdrive sounds cooler but if it crunches, it's all good.

Intro
|----------------------------------|
|----------------------------------|
|----------------------------------|
|--0-3-0--------------------0-3-0--|
|--0-3-0--------------------0-3-0--|
|--0-3-0--------------------0-3-0--|

Main Riff
|-------------------------------|
|-------------------------------|
|-------------------------------|
|--0-6-0-6-0--0-6-0-6-0--0-3-0--|
|--0-6-0-6-0--0-6-0-6-0--0-3-0--|
|--0-6-0-6-0--0-6-0-6-0--0-3-0--|

Bridges ("there's no time to dicriminate") w/ slight delay effect
|--------------------|
|--------------------|
|-------6----5----4--|
|--0----6----5----4--|
|--0----4----3----2--|
|--0-----------------|

these are the actual chords played by Twiggy, but it sounds a whole lot better 
 if you play the bassline, which goes like this...
|--------------------|
|--------------------|
|--------------------|
|--0-----------------|
|-------4----3----2--|
|--------------------|

For the second verse the bass plays the same thing as the first verse, Low 
D|--0-6-0-6-0--0-6-0-6-0--0-3-0--|.  The guitar plays this rif over the 
|--0-3-0--| part:
|-------------|
|-------------|
|-------------|
|--X-X-X-3-0--|
|--X-X-X-3-0--|
|--X-X-X-3-0--|

At the very end, this riff is played instead of the main riff:
|--------------------------------|
|--------------------------------|
|--------------------------------|
|--0-6-0-6-0--0-6-0-6-0-6-5-4-0--|
|--0-6-0-6-0--0-6-0-6-0-6-5-4-0--|
|--0-6-0-6-0--0-6-0-6-0-6-5-4-0--|








I don't want you and I don't need you don't bother to resist, I'll beat you It's not your fault that you're always wrong the weak ones are there to justify the strong the beautiful people, the beautiful people, It's all relative to the size of your steeple you can't see the forest for the trees, and you can't smell your own shit on your knees hey you, what do you see? something beautiful, something free? hey you, are you trying to be mean? if you live with apes, man, it's hard to be clean there's no time to discriminate, hate every motherfucker that's in your way the worms will live in every host it's hard to pick which one they eat most the horrible people, the horrible people it's as anatomic as the size of your steeple capitalism has made it this way, old-fashioned fascism will take it away hey you, what do you see? something beautiful, something free?




hey you, are you trying to be mean? if you live with apes man it's hard to be clean there's no time to discriminate, hate every motherfucker that's in your way








---------------

version 6







Dropped D tuning - D,A,D,G,B,E

Main Riff

e|-------------!-------------!-------------------
B|-------------!-------------!-------------------
G|-------------!-------------!-------------------
D|-------------!-------------!-------------------
A|-0-6--0-6--0-!-0-6--0-6--0-!-0-3-0-------------
D|-0-6--0-6--0-!-0-6--0-6--0-!-0-3-0-------------

Once you know this you can play basically the whole song








I don't want you and I don't need you don't bother to resist, I'll beat you It's not your fault that you're always wrong the weak ones are there to justify the strong the beautiful people, the beautiful people, It's all relative to the size of your steeple you can't see the forest for the trees, and you can't smell your own shit on your knees hey you, what do you see? something beautiful, something free? hey you, are you trying to be mean? if you live with apes, man, it's hard to be clean there's no time to discriminate, hate every motherfucker that's in your way the worms will live in every host it's hard to pick which one they eat most the horrible people, the horrible people it's as anatomic as the size of your steeple capitalism has made it this way, old-fashioned fascism will take it away hey you, what do you see? something beautiful, something free?




hey you, are you trying to be mean? if you live with apes man it's hard to be clean there's no time to discriminate, hate every motherfucker that's in your way










---------------

version 7









Low to high: D, A, D, G, B, E.


INTRO
e)-------------------------------------------------------------------------------------------------------------------------------b)-------------------------------------------------------------------------------------------------------------------------------g)-------------------------------------------------------------------------------------------------------------------------------d)---------x-----x----x---x----x------------------0----3---0---------0----3---0-------0---3----0------------------------a)---------x-----x----x---x----x----repeat-----0----3---0---------0----3---0-------0---3----0------------------------D)---------x-----x----x----x----x-----------------0----3---0---------0----3---0-------0---3----0-----------------------


-----------------------------------------------------------------------------------------------------------------------------------------------------------------------------------------------------------------------------------------------------------------------------------------------------------------------------------------------------------------------------------------------------------------------0--3---0------0--6--0--6--0-----------0--6--0--6--0---------------------------------------------------------------------0--3---0------0--6--0--6--0-----------0--6--0--6--0------repeat  4- times-----------------------------------------0--3---0------0--6--0--6--0-----------0--6--0--6--0------------------------------------------------

Verse (bass only) Second part of verse guitar in
----------------------------------------------------------------------------------------------------------------------------------------------------------------------------------------------------------------------------------------------------------------------------------------------------------------------------------------------------------------------------------------------------------------x--x--x--x--x--x--x--x--x--x--x--x--x--x------------------------------------------------------------------------------------x--x--x--x--x--x--x--x--x--x--x--x--x--x-----------repeat-----------------------------------------------------------------x--x--x--x--x--x--x--x--x--x--x--x--x--x------------------------------------------------------------------

Bridge
------------------------------------------------------------------------------------------------------------------------------------------------------------------------------------------------------------------------------------------------------------------------------7--7--7--7------6--6--6------5--5--5-----4--4--4-----repeat 2 times-------------------------------------------------------------------------------------------------------------------------------------------------------------------------------5--5--5--5--------4--4--4------3--3--3-----2--2--2-------------------------------------------------------------------------------------------------------------------------------------------------------------------------------------------

Chorus
-----------------------------------------------------------------------------------------------------------------------------------------------------------------------------------------------------------------------------------------------------------------------------------------------------------------------------------------------------------------------------------------------------------------0--6--0--6--0-----------0--6--0--6--0---------0--3--0-------------------------------------------------------------------0--6--0--6--0-----------0--6--0--6--0---------0--3--0-----repeat 4 times-----------------------------------------0--6--0--6--0-----------0--6--0--6--0---------0--3--0----------------------------------------------------

Riff 1
Then When is ah,ah
----------------------------------------------------------------------------------------------------------------------------------------------------------------------------------------------------------------------------------------------------------------------------------------------------------------------------------------------------------------------------------------------------------------------------------0--0--0--3--0----------------------0--0--0--3--0---------------------------------------------------------Ah,ah---------0--0--0--3--0-------Ah,ah,-----0--0--0--3--0--------------------------------------------------------------------------0--0--0--3--0----------------------0--0--0--3--0-------------------------------------------



Second Verse 
-----------------------------------------------------------------------------------------------------------------------------------------------------------------------------------------------------------------------------------------------------------------------------7------hold ---------------------------(7)--(7)--(7)--(7)--- harmonics---------------repeat 2 times-----------------------------------0--0--0--3--0------------------------------------------------0--0--0--3--0------------------------------------------------0--0--0--3--0------------------------------------------------0--0--0--3--0------------------------------------------------0--0--0--3--0------------------------------------------------0--0--0--3--0---------------

Then hold harmonics
-----------------------------------------------------------------------------------------------------------------------------------------------------------------------------------------------------------------------------------------------------------------------------7(7)--(7)--(7)--(7)-----harmonics-------------------------------------------------------------------------------------------------------------------------------------------------------------------------------------------------------------------------------------------------------------------------------------------------------------------------------------------------------------------------------------------------------------------------------------------------------------------------------


intro
verse
bridge
chorus
riff 1(ah,ah,)
verse
chorus
bridge
chorus ( With out vocie)
riff 1 (ah,ah)
chorus 4x









I don't want you and I don't need you don't bother to resist, I'll beat you It's not your fault that you're always wrong the weak ones are there to justify the strong the beautiful people, the beautiful people, It's all relative to the size of your steeple you can't see the forest for the trees, and you can't smell your own shit on your knees hey you, what do you see? something beautiful, something free? hey you, are you trying to be mean? if you live with apes, man, it's hard to be clean there's no time to discriminate, hate every motherfucker that's in your way the worms will live in every host it's hard to pick which one they eat most the horrible people, the horrible people it's as anatomic as the size of your steeple capitalism has made it this way, old-fashioned fascism will take it away hey you, what do you see? something beautiful, something free?




hey you, are you trying to be mean? if you live with apes man it's hard to be clean there's no time to discriminate, hate every motherfucker that's in your way










---------------

version 8









Drop-D tuning

-Intro-

e|-----------------------------------------------|
B|-----------------------------------------------|
G|-----------------------------------------------|
D|-------------------------------XXXXX---XXXXX---|  [play this 4     
A|-------------------------------XXXXX---XXXXX---|   times during
D|-------------------------------XXXXX---XXXXX---|   intro]

     -Rest-
e|----------------------------------------
B|----------------------------------------
G|----------------------------------------
D|------------676----676----676----676----
A|------------676----676----676----676----
D|------------676----676----676----676----

    -Main Riff-
e|---------------------|
B|---------------------|
G|---------------------|
D|--67676--67676--454--|
A|--67676--67676--454--|  [4 times]
D|--67676--67676--454--|

[Verse 1]

[no guitar]

   -Bass Line- 
G|---------------------------------------------|
D|---------------------------------------------|
A|---------------------------------------------|
E|----45454--45454--232-----45454--45454--232--|
      I don't want  you and I don't need  you
     Don't bother to resist or I'll beat  you
   It's not your fault that you're always wrong
     The weak are there to  justify the   strong

 [guitar]
e|-----------------------------------------
B|-----------------------------------------
G|-----------------------------------------
D|--X--X-X-X-X---X-X-----X--X-X-X-X---X-X--
A|--X--X-X-X-X---X-X-----X--X-X-X-X---X-X--
D|--X--X-X-X-X---X-X-----X--X-X-X-X---X-X--
  the beautiful people the beautiful people
  it's all relative to the size of your steeple
  you can't see the forest for the trees and
  you can't smell your own shit on your knees

 [chorus]
e|------------------------------------------|
B|------------------------------------------|
G|------------------------------------------|
D|--67676--67676--454----67676--67676--454--|
A|--67676--67676--454----67676--67676--454--|
D|--67676--67676--454----67676--67676--454--|
    Hey!   You!       What do you see?
    Something beautiful, something free?
    Hey!   You!   Are you trying to be mean? If 
you live with the apes man its hard to be clean

 [Interlude]
 [Bass] -let each note ring-
G|--------------------------------------|
D|--------------------------------------|
A|--------------------------------------|
E|--7----------------\6-----------------|
  There's no time to discriminate hate

G|--------------------------------------|
D|--------------------------------------|
A|--------------------------------------| 
E|-\4-----------------------/9----------|
   Every motherfucker that's in your way

 [chorus]
e|------------------------------------------|
B|------------------------------------------|
G|------------------------------------------|
D|--67676--67676--454----67676--67676--454--|
A|--67676--67676--454----67676--67676--454--|
D|--67676--67676--454----67676--67676--454--|
    Hey!   You!       What do you see?
    Something beautiful, something free?
    Hey!   You!   Are you trying to be mean? If 
you live with the apes man its hard to be clean

 [verse 2]
e|---------------------------|
B|---------------------------|
G|---------------------------|
D|------XXX76------XXX76-----|
A|------XXX76------XXX76-----|
D|------XXX76------XXX76-----|
   Ahhhh      Ahhhh

e|---------------------------------------------|
B|---------------------------------------------|
G|---------------------------------------------|
D|----------------------------------------XXX76|
A|----------------------------------------XXX76|
D|----------------------------------------XXX76|
         The worms will live in every host     
Its hard to pick the one they eat the most
   The horrible people the horrible people
Its as anatomic as the size of your steeple
           Capitalism has made it this way
    Old-fashioned facism will take it away

 [chorus]
e|------------------------------------------|
B|------------------------------------------|
G|------------------------------------------|
D|--67676--67676--454----67676--67676--454--|
A|--67676--67676--454----67676--67676--454--|
D|--67676--67676--454----67676--67676--454--|
    Hey!   You!       What do you see?
    Something beautiful, something free?
    Hey!   You!   Are you trying to be mean? If 
you live with the apes man its hard to be clean 

 [Interlude]
 [Bass] -let each note ring-
G|--------------------------------------|
D|--------------------------------------|
A|--------------------------------------|
E|--7----------------\6-----------------|
  There's no time to discriminate hate

G|--------------------------------------|
D|--------------------------------------|
A|--------------------------------------| 
E|-\4-----------------------/9----------|
   Every motherfucker that's in your way 

 [chorus]
e|------------------------------------------|
B|------------------------------------------|
G|------------------------------------------|
D|--67676--67676--454----67676--67676--454--|
A|--67676--67676--454----67676--67676--454--|
D|--67676--67676--454----67676--67676--454--|
    Hey     Hey          Hey     Hey       [x4]

e|---------------------------------------------|
B|---------------------------------------------|
G|---------------------------------------------|
D|----------------------------------------XXX76|
A|----------------------------------------XXX76|
D|----------------------------------------XXX76|
  the beautiful people the beautiful people
  the beautiful people the beautiful people
  the beautiful people the beautiful people

e|------------------------------------------
B|------------------------------------------
G|------------------------------------------
D|-----------------------------------XXXXXXX
A|-----------------------------------XXXXXXX
D|-----------------------------------XXXXXXX
the beautiful people the beautiful people

 [chorus] 
e|------------------------------------------|
B|------------------------------------------|
G|------------------------------------------|
D|--67676--67676--454----67676--67676--454--|
A|--67676--67676--454----67676--67676--454--|
D|--67676--67676--454----67676--67676--454--|
    Hey!   You!       What do you see?
    Something beautiful, something free?
    Hey!   You!   Are you trying to be mean? If 
you live with the apes man its hard to be clean 

e|--------------------------------------------|
B|--------------------------------------------|
G|--------------------------------------------|
D|--67676--67676--454----67676--676768\7\6\4--|
A|--67676--67676--454----67676--676768\7\6\4--|
D|--67676--67676--454----67676--676768\7\6\4--|
    Hey!   You!       What do you see?
    Something beautiful, something free?
    Hey!   You!   Are you trying to be mean? If 
you live with the apes man its hard to be clean 

 [Outro]
e|--------------------------------------------|
B|--------------------------------------------|
G|--------------------------------------------|
D|--67676--676768\7\6\4--67676--676768\7\6\4--|
A|--67676--676768\7\6\4--67676--676768\7\6\4--|
D|--67676--676768\7\6\4--67676--676768\7\6\4--|
   the beautiful people the beautiful people
   the beautiful people the beautiful people
   the beautiful people the beautiful people
   the beautiful people the beautiful people












I don't want you and I don't need you don't bother to resist, I'll beat you It's not your fault that you're always wrong the weak ones are there to justify the strong the beautiful people, the beautiful people, It's all relative to the size of your steeple you can't see the forest for the trees, and you can't smell your own shit on your knees hey you, what do you see? something beautiful, something free? hey you, are you trying to be mean? if you live with apes, man, it's hard to be clean there's no time to discriminate, hate every motherfucker that's in your way the worms will live in every host it's hard to pick which one they eat most the horrible people, the horrible people it's as anatomic as the size of your steeple capitalism has made it this way, old-fashioned fascism will take it away hey you, what do you see? something beautiful, something free?




hey you, are you trying to be mean? if you live with apes man it's hard to be clean there's no time to discriminate, hate every motherfucker that's in your way










---------------

version 9







Notation:
h=hammer on
p=pull off
x=mute
P.M.______=palm mute
(palm mut symbol will be above tab lines)
\=slide up the neck
/=slide down the neck towards the headstock

intro:
  *Drums and studio effects
|--------------------------------------|
|--------------------------------------|                               
|--------------------------------------|                               
|--------------------------------------|                               
|--------------------------------------|                               
|--------------------------------------| 



P.M.__________________________________
|-----------------------------------------|
|-----------------------------------------|
|-----------------------------------------|
|--x-x-x-x---x-x-x-x---x-x-x-x---x-x-x-x--|
|--x-x-x-x---x-x-x-x---x-x-x-x---x-x-x-x--|
|--x-x-x-x---x-x-x-x---x-x-x-x---x-x-x-x--|


|-----------------------------------------|
|-----------------------------------------|
|-----------------------------------------|
|-----------------------------------------|
|--0h3p0----0h3p0----0h3p0----0h3p0-------|
|--0h3p0----0h3p0----0h3p0----0h3p0-------|


* play 4 times*
|-----------------------------------------|
|-----------------------------------------|
|-----------------------------------------|
|-----------------------------------------|
|--0h5p0h5p0--0h5p0h5p0--0h3p0------------|
|--0h5p0h5p0--0h5p0h5p0--0h3p0------------|


  pre-chorus:  theres no time to dscriminate...
|---------------------------------------------|
|---------------------------------------------|
|---------------------------------------------|
|--x----5-4----4-3---3-2----2-1----1-0----2\5-|
|---------------------------------------------|
|---------------------------------------------|
                                                                                                                         
chorus:     *play 4 times*                                   
|-----------------------------------------|
|-----------------------------------------|
|-----------------------------------------|
|-----------------------------------------|
|--0h5p0h5p0--0h5p0h5p0--0h3p0------------|
|--0h5p0h5p0--0h5p0h5p0--0h3p0------------|


2nd verse:
|-----------------------------------------|
|-----------------------------------------|
|-----------------------------------------|
|---x-x-x-3p0-----------------------------|
|---x-x-x-3p0-----------------------------|
|---x-x-x-3p0-----------------------------| 


interlude: The Beautiful people  the beautiful people aah              
|------------------------------------------------------------------|
|------------------------------------------------------------------|
|------------------------------------------------------------------|
|--------------------------------------------------------x-x-x-3p0-|
|--------------------------------------------------------x-x-x-3p0-|
|--------------------------------------------------------x-x-x-3p0-|









I don't want you and I don't need you don't bother to resist, I'll beat you It's not your fault that you're always wrong the weak ones are there to justify the strong the beautiful people, the beautiful people, It's all relative to the size of your steeple you can't see the forest for the trees, and you can't smell your own shit on your knees hey you, what do you see? something beautiful, something free? hey you, are you trying to be mean? if you live with apes, man, it's hard to be clean there's no time to discriminate, hate every motherfucker that's in your way the worms will live in every host it's hard to pick which one they eat most the horrible people, the horrible people it's as anatomic as the size of your steeple capitalism has made it this way, old-fashioned fascism will take it away hey you, what do you see? something beautiful, something free?




hey you, are you trying to be mean? if you live with apes man it's hard to be clean there's no time to discriminate, hate every motherfucker that's in your way









---------------
Want More Free Lessons?

Browse through the Archive!

PROBLEM WITH THIS TAB? | VIEW FULL SCREEN | PRINT

NOCO Genius. Faster. Safer. Smaller.mental_floss store