Lessons/Tabs are sorted alphabetically.

Tab Vault

PROBLEM WITH THIS TAB?   VIEW FULL SCREEN   PRINT

Conversations With A Ghost

Ellis Paul
Conversations With A Ghost by Ellis Paul



 


                   Conversations With A Ghost






Tuning: D A D G B D (double drop d)
capo 4

Verse
|-------7-------7-----7-----0-----0-------------0----------|
|---5-----5---5---5-----5-----2-----2---2---2-----2---2----|
|----------------------------------------------------------|   x4
|----------------------------------------------------------|
|-5---5-----5---4---4-----4-----2-----2---0---0------------|
|---------------------------------------------------0------|
Chorus
|-------0----------------0-----------------|
|-0h3-----3--------------------------------|
|-----2--------------------0---------------|  x2
|-0------------------7---------------------|
|-----------0h2p0------5-----5h7p5---------|
|------------------5-----------------------|

|--------0------------------------------0---|
|--0h3-----3--------------------------------|
|------2-------------------4----------------|
|--0-------------------4-----4------2-------|
|------------0h2p0-------4-----4------------|
|--------------------4------------2---2-----|

|-----------------------0-------------0---------|
|-----------------------------------------------|
|-------------------4-----4-------6-----6---6---|
|2-5/4-4p2------------5-------5-----7-----7-----|
|---------------------------5-------------------|
|----------2h4/7--5-------------7---------------|

Outro
|-------7-------7-----7-----0-----0-------------0-----------------0-----|
|---5-----5---5---5-----5-----2-----2---2---2-----2---2---------3-------|
|-------------------------------------------------------------2---------|
|-----------------------------------------------------------0-----------|
|-5---5-----5---4---4-----4-----2-----2---0---0-----------0-------------|
|---------------------------------------------------0---0---------------|









-----------
Want More Free Lessons?

Browse through the Archive!

PROBLEM WITH THIS TAB? | VIEW FULL SCREEN | PRINT

""