Lessons/Tabs are sorted alphabetically.

Tab Vault

PROBLEM WITH THIS TAB?   VIEW FULL SCREEN   PRINT

New Death Sensation

Acid Bath
New Death Sensation by Acid Bath





                    New Death Sensation





Tuning: Standard

Intro (Accoustic Guitar)

 e|---------------------------------------------------------|
 B|---------------------------------------------------------|
 G|---------------------------------------------------------|
 D|-1---1-1h3----3-3---3-3---3--1---1-1h3---3-3---3-3---3---|
 A|---4-------1------1-----1------4-------1-----1-----1-----|
 E|---------------------------------------------------------|

 e|-------------------------------------------------------------|
 B|-------------------------------------------------------------|
 G|-------------------------------------------------------------|
 D|-1---1--8-----8--8-----8--8-----8--6--4--3----3-3---3-3---3--|
 A|---4----9--9--------9--------9-----9--7--2--2-----2-----2----|
 E|-------------------------------------------------------------|

 e|-------------------------------------------------------------|
 B|-------------------------------------------------------------|
 G|-------------------------------------------------------------|
 D|-1---1--8-----8--8-----8--8-----8--9---3--2---2-2---2-2---2--|
 A|---4----9--9--------9--------9-----8---4--3-3-----3-----3----|
 E|-------------------------------------------------------------|

 e|--------------------------------------------------------------|
 B|--------------------------------------------------------------|
 G|--------------------------------------------------------------|
 D|-1---1-1h3----3-3---3-3---3--1---1--8-----8--8-----8--8-----8-|
 A|---4-------1------1-----1------4----9--9--------9--------9----|
 E|--------------------------------------------------------------|

 e|---------------------------------------------------------|
 B|------------1---------1----------------------------------|
 G|--------------0------------------------------------------|
 D|-9---3--2-------2------------1---1-1h3---3-3---3-3---3---|
 A|-8---4--3---------3------------4-------1-----1-----1-----|
 E|---------------------------------------------------------|

 e|----------------------------|
 B|----------------------------|
 G|----------------------------|
 D|-1---1-1h3----3-3---3-3---3-|
 A|---4-------1------1-----1---|
 E|----------------------------|

 e|-------------------------------------------------------------|
 B|-------------------------------------------------------------|
 G|-------------------------------------------------------------|
 D|-1---1--8-----8--8-----8--8-----8--6--4--3----3-3---3-3---3--|
 A|---4----9--9--------9--------9-----9--7--2--2-----2-----2----|
 E|-------------------------------------------------------------|

 e|------------------------------------------------------------|
 B|----------------------------------------------1---------1---|
 G|------------------------------------------------0-----------|
 D|-1---1--8-----8--8-----8--8-----8--9---3--2-------2---------|
 A|---4----9--9--------9--------9-----8---4--3---------3-------|
 E|------------------------------------------------------------|

 e|------------------------------------------|
 B|------------------------------------------|
 G|------------------------------------------|
 D|-1---1-1h3----3-3---3-3---3--1---1-1h3----|
 A|---4-------1------1-----1------4-------1--|
 E|------------------------------------------|


   The rest of the song is played on electric guitar with some wierd chorus effect. It's 
of these two figures played alternately with a keyboard harmony

 e|------------------------------|
 B|------------------------------|
 G|---5------5------5------5-----|
 D|-----5------5------5------5---|
 A|-3-------------3--------------|
 E|--------4-------------4-------|

 e|------------------------------------------------------------|
 B|------------------------------------------------------------|
 G|---5------5------5------5------5------5------5------5-------|
 D|-----5------5------5------5------5------5------5------5-----|
 A|-3------3------3------3------2------2------2------2---------|
 E|------------------------------------------------------------|





--------------------

version 2





Tuned a whole step down. (Don't really have to though, still sounds good in standard or 1/2)

The order goes as follows:
Riff1 2X, Riff2 1X, Riff3 1X, Riff1 1X, Riff3 1X, Chord, Riff1 2X, Riff2 1X,
Riff3 1X, Chord, Riff4 1X, then Riff5 played over Riff4. Listen to the song & you'll
get it. It's simple but sounds awesome. All played in ACOUSTIC.

Riff 1

D---------------------------------------------------------------------------
A---------------------------------------------------------------------------
F---------------------------------------------------------------------------
C-3-----3----3h5------5--5------5--5------5---------------------------------
G----6-------------3--------3---------3-------------------------------------
D---------------------------------------------------------------------------

Riff 2

D---------------------------------------------------------------------------
A---------------------------------------------------------------------------
F---------------------------------------------------------------------------
C-3-----3--3h6-----6--6-------6--6-----6--5---3--3h5-----5--5-----5--5---5--
G----6----------3---------3---------3-------3----------3--------3------3----
D---------------------------------------------------------------------------

Riff 3

D---------------------------------------------------------------------------
A---------------------------------------------------------------------------
F---------------------------------------------------------------------------
C-3-----3--10-----10--10-----10--10-----10--11---5--4-----4--4------4--4----
G----6-------------------------------------------------5---------5--------5-
D--------------8----------8----------8--------------------------------------

Chord

D---------------------------------------------------------------------------
A-3-----------------3-------------------------------------------------------
F----2-----------2----------------------------------------------------------
C-------0-----0-------------------------------------------------------------
G----------0----------------------------------------------------------------
D---------------------------------------------------------------------------

Riff 4,(Guitar 1)

D---------------------------------------------------------------------------
A---------------------------------------------------------------------------
F-----7---------7---------7----------7--------------------------------------
C-7------7--8-----8---7------7---8------8-----------------------------------
G---------------------------------------------------------------------------
D---------------------------------------------------------------------------

Riff 5, (Guitar 2, this is played over Guitar one)

D-------------------------------6------------------------------------6------
A-6--------6---------6-------------------5---------5--------5---------------
F----7--------7---------7---------7---------7---------7--------7--------7---
C-------7--------7---------7---------7----------7--------7--------7--------7
G---------------------------------------------------------------------------
D---------------------------------------------------------------------------







----------
Want More Free Lessons?

Browse through the Archive!

PROBLEM WITH THIS TAB? | VIEW FULL SCREEN | PRINT

Fly Roundtrip for $149 or less. Discount Flights GUARANTEED. Book Now!Free Shipping on Wheels at TireBuyer.com