Lessons/Tabs are sorted alphabetically.

Tab Vault

PROBLEM WITH THIS TAB?   VIEW FULL SCREEN   PRINT

Finger Paintings Of The Insane

Acid Bath
Finger Paintings Of The Insane by Acid Bath





                   Finger Paintings Of The Insane 







Dropped D tuning

 Intro: (4x)

 E|----------------------------------------------------------------------------|
B|-----------------------------------------------------------------------------|
G|-----------------------------------------------------------------------------|
D|-----------------------------------------------------------------------------|
A|----5--5-5-----5-5--5--5-----5--5-5-----5-5--5--5-----6--6-6-----6--6-6-6----|
D|-0----------0-------------0----------0-------------0----------0--------------|

 E|-----------------------|
 B|-----------------------|
 G|-----------------------|
 D|-----------------------|
 A|----5--5-5-----5--5-5--|
 D|-5----------0----------|

 Bridge:                                    (harmonics over 5th fret)

 E|-----------------------------------------------------------------------|
 B|-----------------------------------------------------------------------|
 G|-----------------------------------------------------------------------|
 D|--0--7--7--7---0--8--8--8---0--7--7--7---(5)--(5)--(5)--(5)--(5)--(5)--|
 A|--0--7--7--7---0--8--8--8---0--7--7--7---(5)--(5)--(5)--(5)--(5)--(5)--|
 D|--0--7--7--7---0--8--8--8---0--7--7--7---(5)--(5)--(5)--(5)--(5)--(5)--|

 E|----------------------------------------------------|
 B|----------------------------------------------------|
 G|----------------------------------------------------|
 D|--0--7--7--7---0--8--8--8---0--7--7--7---3---2---1--|
 A|--0--7--7--7---0--8--8--8---0--7--7--7---3---2---1--|
 D|--0--7--7--7---0--8--8--8---0--7--7--7---3---2---1--|

 Chorus:     (Setch says - I think these are tabbed too high, but
              I am amending from memory so I won't alter them now.)

 E|---------------------------B|---------------------------|
 G|---------------------------D|--0-5-6-0-4-5-0-7-8-5-4-3--|
 A|--0-5-6-0-4-5-0-7-8-5-4-3--D|--0-5-6-0-4-5-0-7-8-5-4-3--|

 I can't seem to figure out the part directly after the chorus

 Interlude: (pigs will squeal part)

  (4x)                 (4x)                       (4x)
 E|--------------------|--------------------------|-----------------------------|
B|--------------------|--------------------------|------------------------------|
G|--------------------|--------------------------|------------------------------|
D|--5-5-5-5-5-5-5--4--|--6-6-6-6-6-6-6--5-5-5-5--|--8-8-8-8-8-8-8--7-7-7-7-7----|
A|--5-5-5-5-5-5-5--4--|--6-6-6-6-6-6-6--5-5-5-5--|--8-8-8-8-8-8-8--7-7-7-7-7----|
D|--5-5-5-5-5-5-5--4--|--6-6-6-6-6-6-6--5-5-5-5--|--8-8-8-8-8-8-8--7-7-7-7-7----|

 E|-----------------------------------|
 B|-----------------------------------|
 G|-----------------------------------|
 D|--10-10-10-10-10-10-10--9-9-9-9-9--|
 A|--10-10-10-10-10-10-10--9-9-9-9-9--|
 D|--10-10-10-10-10-10-10--9-9-9-9-9--|







-------
Want More Free Lessons?

Browse through the Archive!

PROBLEM WITH THIS TAB? | VIEW FULL SCREEN | PRINT

""