Lessons/Tabs are sorted alphabetically.

Tab Vault

PROBLEM WITH THIS TAB?   VIEW FULL SCREEN   PRINT

Excitement

A Little Grace
Excitement by A Little Grace





                          Excitement 







Capo 3

E|-------------------------0-0-0-0-0-0-0-0-0-0-0-0-0-0-0-0--------|
B|-------------------------0-0-8-0-7-0-0-8-0-0-8-0-7-0-0-0--------|
G|---------------ha ha-----0-0-0-0-0-0-0-0-0-0-0-0-0-0-0-0--------|
D|-------------------------x-x-x-x-x-x-x-x-x-x-x-x-x-x-x-x--------|
A|-------------------------7-7-7-7-7-7-7-7-7-7-7-7-7-7-7-7--------|
E|--0-0---0-0--------------0-0-0-0-0-0-0-0-0-0-0-0-0-0-0-0--------|
                           <   <   <   <   <   <   <   <

E|--0--0--0--0--0--0--0--0--0--0--0--0--0--0--0--0----------------|
B|--10-10-10-10-10-10-10-10-10-10-10-10-10-10-10-10---------------|
G|--0--0--0--0--0--0--0--0--11-11-11-11-11-11-11-11---------------|
D|--0--0--0--0--0--0--0--0--0--0--0--0--0--0--0--0----------------|
A|--10-10-10-10-10-10-10-10-9--9--9--9--9--9--9--9----------------|
E|--x--x--x--x--x--x--x--x--x--x--x--x--x--x--x--x----------------|
    <     <     <     <     <     <     <     <
< = Naar beneden aanslaan
‘niets’= Naar boven aanslaan.







-------
Want More Free Lessons?

Browse through the Archive!

PROBLEM WITH THIS TAB? | VIEW FULL SCREEN | PRINT

""