Lessons/Tabs are sorted alphabetically.

Tab Vault

PROBLEM WITH THIS TAB?   VIEW FULL SCREEN   PRINT

Perpetual Oyster

Yawning Man
Perpetual Oyster by Yawning Man





                           Perpetual Oyster






Tuning: standard


Verse:
e|--------------------------------------------------------------------------------|
B|--------------------------------------------------------------------------------|
G|--0-0---0-----------------------------------------------------------------------|
D|2-----2-----0-0---0---2-2---2-------------0-0---0-------------2-2---2-----------|
A|----------2-----2---4-----4-----2-2---2-3-----3-----0-0---0-4-----4-----2-2---2-|
E|------------------------------4-----4-------------3-----3-------------4-----4---|


0:48

e|---------------------------------------------------------------------------|
B|---------------------------------------------------------------------------|
G|---9-9---95-5-5-5/7-7-7---------------------------------------------------|
D|-7-----7-----------------0-7-7-0-7-0-7-7-0-7-------------------------------|
A|---------------------------------------------------------------------------|
E|---------------------------------------------------------------------------|

e|---------------------------------------------------------------------------|
B|---12-12---128-8-8-8/10-10-10---12-12-------------------------------------|
G|-9-------9---------------------9-------9-----------------------------------|
D|---------------------------------------------------------------------------|
A|---------------------------------------------------------------------------|
E|---------------------------------------------------------------------------|


1:08
e|---------------------------------------------------------------------------|
B|---------------------------------------------------------------------------|
G|--------------------14-----------------------------------------------------|
D|-----------------12--------------------------------------------------------|
A|-0-0-0-0-0-0-0-0-----------------------------------------------------------|
E|---------------------------------------------------------------------------|

e|---------------------------------------------------------------------------|
B|---------------------------------------------------------------------------|
G|---------------------------------------------------------------------------|
D|------------------10-12----------------------------------------------------|
A|-0-0-0-0-0-0-0-12----------------------------------------------------------|
E|---------------------------------------------------------------------------|

1:46
the guitar guitar pattern that runs throughout the song is changed around to
this one

e|---------------------------------------------------------------------------|
B|-----0---------------------------------------------------------------------|
G|---0-------0-----0-----------0-----------0---------------------------------|
D|-2-------0-----2-------0---0-------0---2-------0---------------------------|
A|-------2-----4-------2---3-------0---4-------2-----------------------------|
E|-------------------4-----------3-----------4-------------------------------|

e|-----0---------------------------------------------------------------------|
B|---------------------------------------------------------------------------|
G|---0-------0-----0-----------0-----------0---------------------------------|
D|-2-------0-----2-------0---0-------0---2-------0---------------------------|
A|-------2-----4-------2---3-------0---4-------2-----------------------------|
E|-------------------4-----------3-----------4-------------------------------|





| /  slide up
|   slide down
| h  hammer-on
| p  pull-off
| ~  vibrato
| +  harmonic
| x  Mute note




--------------------

version 2


Standard E Tuning

Main Guitar Riff


e|--------------------------------------------------------------------------|
B|--------------------------------------------------------------------------|
G|--------------------------------------------------------------------------|
D|--------------------------------------------------------------------------|
A|--7h10-10-7-10----------------4h7-7-4-7-------------3h5-5-3-5-------------|
E|----------------7h10-10-7-10-------------4h7-7-4-7-------------3h5-5-3-5--|


e|--------------------------------------------------------------------------|
B|--------------------------------------------------------------------------|
G|--------------------------------------------------------------------------|
D|--------------------------------------------------------------------------|
A|--4h7-7-4-7---------------------------------------------------------------|
E|-------------4h7-7-4-7----------------------------------------------------|


Secondary Riff


e|---------------------------------------------------------------------------|
B|----------------------------------------------12-12-12-12-8-8-8-10-10-10---|
G|----9-9-9-9-5-5-5-7-7-7--------------------------------------------------7-|
D|--7---------------------0-7-7-0-7-0-7-7-0-7-7------------------------------|
A|---------------------------------------------------------------------------|
E|---------------------------------------------------------------------------|


e|---------------------------------------------------------------------------|
B|---------------------------------------------------------------------------|
G|----7-7---7---7-7--7-------------------------------------------------------|
D|--7-----7---7----7---------------------------------------------------------|
A|---------------------------------------------------------------------------|
E|---------------------------------------------------------------------------|


Interlude


e|---------------------------------------------------------------------------|
B|---------------------------------------------------------------------------|
G|-----16sb------------------------------------------------------------------|
D|--14-----------10-12sb-----------------------------------------------------|
A|---------------------------------------------------------------------------|
E|---------------------------------------------------------------------------|

sb= slight bend






------------
Want More Free Lessons?

Browse through the Archive!

PROBLEM WITH THIS TAB? | VIEW FULL SCREEN | PRINT

CheapOair.comAllurez