Lessons/Tabs are sorted alphabetically.

Tab Vault

PROBLEM WITH THIS TAB?   VIEW FULL SCREEN   PRINT

Beat You Down

X-cops
Beat You Down by X-cops





              Beat You Down





Tuning (this tab): Half-Step Down [ D# G# C# F# A# D# ] 

All strings tuned half-step down


INTRO
|Rhythm
|------------------------------------------|
|------------------------------------------|
|--------7-x-x-6-x-----------7-x-x-6-x-----|
|--9-x-x-7-x-x-6-x-7~--9-x-x-7-x-x-6-x-7~--|
|--9-x-x-5-x-x-4-x-7~--9-x-x-5-x-x-4-x-7~--|
|--7-x-x-----------5~--7-x-x-----------5~--|
|
|Lead
|------------------------------------------|
|------------------------------------------|
|-----------------------b9-7---------------|
|----------------------------9~~-----------|
|------------------------------------------|
|------------------------------------------|


MAIN RIFF/VERSE
|----------------------|
|----------------------|
|--------7-x-x-6-x-----|
|--9-x-x-7-x-x-6-x-7~--|
|--9-x-x-5-x-x-4-x-7~--|
|--7-x-x-----------5~--| x2

VERSE (PART II)
|---------------------------|
|---------------------------|
|-------------7--7-7--7-----|
|--5--5-5--5--7--7-7--7--9--|
|--5--5-5--5--5--5-5--5--9--|
|--3--3-3--3-------------7--|


Repeat    MAIN RIFF/VERSE x6


VERSE (PART II) (SECOND TIME)
|---------------------------------------|
|---------------------------------------|
|-------------7--7-7--7-----------------|
|--5--5-5--5--7--7-7--7--9-9-9-9-7h9-9--|
|--5--5-5--5--5--5-5--5--9--------------|
|--3--3-3--3-------------7--------------|
PM                         . . . .   .


Repeat    MAIN RIFF/VERSE x4


CHORUS
|-------------------------------------------------------|
|-------------------------------------------------------|
|-------------7--7-7--7---------------------------------|
|--5--5-5--5--7--7-7--7--9-9-9-9-9-9-9-9-9-9-9-9-9-9-9--|
|--5--5-5--5--5--5-5--5--9-9-9-9-9-9-9-9-9-9-9-9-9-9-9--|
|--3--3-3--3-------------7-7-7-7-7-7-7-7-7-7-7-7-7-7-7--| x4
                                     ^
                             Stop here on the fourth time

INTERLUDE (PART I) (Heavy Palm Muting)
|-----------------------------------------------------|
|-----------------------------------------------------|
|----------5-5-5-5------------------------------8-----|
|--7-7-7-7-5-5-5-5-5-5-5-5-4-4-4-4-7-7-7-7-7-7--8--7--|
|--7-7-7-7-3-3-3-3-5-5-5-5-4-4-4-4-7-7-7-7-7-7--6--7--|
|--5-5-5-5---------3-3-3-3-2-2-2-2-5-5-5-5-5-5-----5--| x4
PM . . . . . . . . . . . . . . . . . . . . . .


INTERLUDE (PART II) (Same As Above, But Not Palm Muted)
|-----------------------------------------------------|
|-----------------------------------------------------|
|----------5-5-5-5------------------------------8-----|
|--7-7-7-7-5-5-5-5-5-5-5-5-4-4-4-4-7-7-7-7-7-7--8--7--|
|--7-7-7-7-3-3-3-3-5-5-5-5-4-4-4-4-7-7-7-7-7-7--6--7--|
|--5-5-5-5---------3-3-3-3-2-2-2-2-5-5-5-5-5-5-----5--| x8


RETURN
|-------------------------------------------------------|
|-------------------------------------------------------|
|-------------7--7-7--7---------------------------------|
|--5--5-5--5--7--7-7--7--9-9-9-9-9-9-9-9-9-9-9-9-9-9-9--|
|--5--5-5--5--5--5-5--5--9-9-9-9-9-9-9-9-9-9-9-9-9-9-9--|
|--3--3-3--3-------------7-7-7-7-7-7-7-7-7-7-7-7-7-7-7--|

|----------------------------------------------------------|
|----------------------------------------------------------|
|-------------7--7-7--7------------------------------------|
|--5--5-5--5--7--7-7--7--9-9-9-9-9-9-9---------------------|
|--5--5-5--5--5--5-5--5--9-9-9-9-9-9-9---------------------|
|--3--3-3--3-------------7-7-7-7-7-7-7---------------------|


FINAL VERSE
|----------------------|
|----------------------|
|--------7-x-x-6-x-----|
|--9-x-x-7-x-x-6-x-7~--|
|--9-x-x-5-x-x-4-x-7~--|
|--7-x-x-----------5~--| x2

|-------------------------------------------------------|
|-------------------------------------------------------|
|-------------7--7-7--7---------------------------------|
|--5--5-5--5--7--7-7--7--9-9-9-9-9-9-9-9-9-9-9-9-9-9-9--|
|--5--5-5--5--5--5-5--5--9-9-9-9-9-9-9-9-9-9-9-9-9-9-9--|
|--3--3-3--3-------------7-7-7-7-7-7-7-7-7-7-7-7-7-7-7--|

|----------------------|
|----------------------|
|--------7-x-x-6-x-----|
|--9-x-x-7-x-x-6-x-7~--|
|--9-x-x-5-x-x-4-x-7~--|
|--7-x-x-----------5~--|

|------------------------|
|------------------------|
|-------------7--7-7--7--|
|--5--5-5--5--7--7-7--7--|
|--5--5-5--5--5--5-5--5--|
|--3--3-3--3-------------| x2


Repeat    MAIN RIFF/VERSE x4


SOLO
|Rhythm
|-------------------------------------------------------|
|-------------------------------------------------------|
|-------------7--7-7--7---------------------------------|
|--5--5-5--5--7--7-7--7--9-9-9-9-9-9-9-9-9-9-9-9-9-9-9--|
|--5--5-5--5--5--5-5--5--9-9-9-9-9-9-9-9-9-9-9-9-9-9-9--|
|--3--3-3--3-------------7-7-7-7-7-7-7-7-7-7-7-7-7-7-7--| x4
|
|Lead
|----------------------------------------------------------|
|----------------------------------------------------------|
|----------------------------------------------------------|
|----------------------------------------------7---7-7h9~--|
|----2-5-5h7-5-7-7h9-7-5---5-7-7h9-7-5-7h9-7-5---5---------|
|--3---------------------7---------------------------------|

|-----------------------------------------------------------------|
|------7-----7-----------------------7-----7-----10---10-10/12~~--|
|--9p7---9p7---9-7---------------9p7---9p7---9-7----7-------------|
|------------------9--7---7---------------------------------------|
|-----------------------9---9-7-----------------------------------|
|-----------------------------------------------------------------|


Repeat    CHORUS


ENDING
|----------------------------|
|----------------------------|
|--------7-x-x-6-x-----------|
|--9-x-x-7-x-x-6-x-7~---9--|
|--9-x-x-5-x-x-4-x-7~---9--|
|--7-x-x-----------5~---7--|


Legend
========
h    | Hammer-On
p    | Pull-Off
b    | Bend Note
PM   | Palm Muting
~    | Hold Note
x    | Mute Note
/    | Slide Up
    | Slide Down





--------
Want More Free Lessons?

Browse through the Archive!

PROBLEM WITH THIS TAB? | VIEW FULL SCREEN | PRINT

Rebel CircusWolfgang's Vault - reissue