Lessons/Tabs are sorted alphabetically.

Tab Vault

PROBLEM WITH THIS TAB?   VIEW FULL SCREEN   PRINT

Hold On True

Oar
Hold On True by Oar





                  Hold On True







Intro:

e:---16p12---14-12-----12------12p9-----------------|
B:-12------12-----12p14--12---9----9-12-9-9p10p9----|
G:-----------------------------------------------11-|
D:--------------------------------------------------|
A:--------------------------------------------------|
E:--------------------------------------------------|

Repeat as necessary

Chorus:

e:---0--7--5-|
B:---0--7--5-|
G:---1--8--6-|
D:---2--9--7-|
A:---2--9--7-|
E:---0--7--5-|

     E, B, A

Bridge:
e:---0--2--5--7-|
B:---1--2--5--7-|
G:---2--3--6--8-|
D:---2--4--7--9-|
A:---0--4--7--9-|
E:---0--2--5--7-|

Am, F#, A, B


--------------------

version 2




 Verse
E|---------2-0---------------|
B|---------2-0---------------|
G|-------------4-4-2-2-------|
D|---2-2-2-----4-4-2-2-------|
A|---2-2-2-----2-2-0-0-------|
E|---0-0-0-------------------|


    Chorus
E|---------------------------|
B|---------------------------|
G|---2-2-4-4-2-2-------------|
D|---2-2-4-4-2-2-------------|
A|---0-0-2-2-0-0-------------|
E|---------------------------|


    Bridge
E|---------------------------|
B|---------------------------|
G|-----------2-2-4-4---------|
D|---2-2-4-4-2-2-4-4---------|
A|---2-2-4-4-0-0-2-2---------|
E|---0-0-2-2-----------------|






------------
Want More Free Lessons?

Browse through the Archive!

PROBLEM WITH THIS TAB? | VIEW FULL SCREEN | PRINT

CheapOair.comAllurez