Lessons/Tabs are sorted alphabetically.

Tab Vault

PROBLEM WITH THIS TAB?   VIEW FULL SCREEN   PRINT

Fire On The Mountain

Oar
Fire On The Mountain by Oar






         Fire On The Mountain








Intro

Guitar 1 - Marc
|----5-2-------5-2-----3-0------|
|3-3-----3-3-3-----1-1-----1-1--|
|-------------------------------|
|-------------------------------| (4x)
|-------------------------------|
|-------------------------------|
 Guitar 2 – Richard (Comes in after the 2nd time Marc plays the intro riff)

|---14--------12h13p13--------14-14-14--|
|15------------------------------15-15--|
|---------------------------------------|
|---------------------------------------|
|---------------------------------------|
|---------------------------------------|

Marc(Vocals)- “Long distance runner, why you sta-

|8--------12-------|
|8---8-10----------|
|--9---------------|
|------------------|
|------------------|
|------------------|

^-nding here for?^


|14----|
|15----|
|------|
|------|
|------|
|------|

Marc(Vocals)- “Get up, Get up. Get..

|8----------------|
|8----------------|
|-----------------|
|-----------------|
|-----------------|
|-----------------|

^..outta the door.^

|---14h15p14--|
|-------------|
|14-----------|
|-------------|
|-------------|
|-------------|

Vocals- “My destination is on....

|------12---------------|
|8---8------------------|
|--9--------------------|
|-----------------------|
|-----------------------|
|-----------------------|

^..the dance room floor^

|---14-|
|10----|
|11----|
|------|
|------|
|------|

Vocals- “If you feel me.”

|-----------12|
|10-8-8---8---|
|-------9-----|
|-------------|
|-------------|
|-------------|

“Let me hear ya, let me hear ya.”


|------------14h15p14--|
|------15--------------|
|---14----14-----------| (2x)
|16--------------------|
|----------------------|
|----------------------|


|------------12h13p12--|
|------13--------------|
|---12----12-----------| (2x)
|14--------------------|
|----------------------|
|----------------------|


|------------14h15p14--|
|------15--------------|
|---14----14-----------| (2x)
|16--------------------|
|----------------------|
|----------------------|


|------------12h13p12-------12h13p12-------12h13p12--|
|------13-------------13-------------13--------------|
|---12----12-------------12-------------12-----------|
|14--------------------------------------------------|
|----------------------------------------------------|
|----------------------------------------------------|


Vocals-“Fire,..


|14-12-----|
|------15--|
|----------|
|----------|
|----------|
|----------|


“fire on the mountain”

|12-10-----|
|------13--|
|----------|
|----------|
|----------|
|----------|

Vocals-“Fire,..


|14-12-----|
|------15--|
|----------|
|----------|
|----------|
|----------|


“fire on the mountain”

|12-10-----|
|------13--|
|----------|
|----------|
|----------|
|----------|


Vocals-“Destination,..


|14-12-----|
|------15--|
|----------|
|----------|
|----------|
|----------|


“running through your station.”

|12-10-----|
|------13--|
|----------|
|----------|
|----------|
|----------|


Vocals-“Cutting cross the nation”


|14-12-----|
|------15--|
|----------|
|----------|
|----------|
|----------|

|12-10-----|
|------13--|
|----------|
|----------|
|----------|
|----------|

“We gonna get down here tonight Bonaroo two-thousand five!”


Chord Progression: D-Am- (6x) Till End






------------
Want More Free Lessons?

Browse through the Archive!

PROBLEM WITH THIS TAB? | VIEW FULL SCREEN | PRINT

Custom TShirts - Click Here!Mulligan Mint