Lessons/Tabs are sorted alphabetically.

Tab Vault

PROBLEM WITH THIS TAB?   VIEW FULL SCREEN   PRINT

City On Down

Oar
City On Down by Oar





               City On Down








                   -- Chords Used --

      c                             Am
------------------         -------------------|
------------------         -------------------|
-----5------------         ------2------------|
-----5------------         ------2------------|
----3-------------         ------0------------|
------------------         -------------------|
      G                             F
------------------         -------------------|
------------------         -------------------|
------------------         -----2-------------|
-----5------------         -------3-----------|
-----5------------         -------3-----------|
----3-------------         -----1-------------|

             --Lyrics with chord progression--

[C]                                                [G]
Well in the end my friend we will all be together again

                [Am]                    [F]
Clutchin onto my hand, in a valley with sand

                [C]
were just livin again, in a while we will smile

[G]              [Am]                  [F]
March on another mile, upon hallowed hills

                      [C]                           [G]
Tied to the land we'll be still, no ones ever gonna say a thing

                       [Am]        [F]
And we'll be together, together again.

                         [C]
Lets take it to the city on down

 [G]   [Am]  [F]  Repeat as needed




--------------------

version 2




e|------------------------------8-----------------------------------------------|
B|--5--5h6--5--------5--6--8----------------------------------------------------|
G|------------------------------------------------------------------------------|
D|------------------------------------------------------------------------------|
A|------------------------------------------------------------------------------|
E|------------------------------------------------------------------------------|







C                                               G
In the end my friend we will all be together again,
                     Am                        F
clutchin' on to my hand, in the valley with sand,
                    C
we're just living again, In a while we'll smile,
G                   Am                 F
march on another mile, down hallowed hill,
                        C                              G
tied to the land we'll be still, no one's ever gonna say a thing,
                   Am                F
and we'll be together, together again,
                           C
take it on to the city on down.

G     Am       F x2(about this many times)

Then you do the same chord progression for the rest of the song.







----------
Want More Free Lessons?

Browse through the Archive!

PROBLEM WITH THIS TAB? | VIEW FULL SCREEN | PRINT

ZLZ.COMCustom TShirts - Click Here!