Lessons/Tabs are sorted alphabetically.

Tab Vault

PROBLEM WITH THIS TAB?   VIEW FULL SCREEN   PRINT

About An Hour Ago

Oar
About An Hour Ago by Oar





                         About An Hour Ago







This song is very simple...if you listen to the music 
you can easily put the chords into the rythum 
I started you out with the first verse and the rest of 
the song continues in the same way 

-3---------------------------------------------------------------------------- 
-1---------------------------------------------------------------------------- 
-0---------------------------------------------------------------------------- 
-2---------------------------------------------------------------------------- 
-3---------------------------------------------------------------------------- 
-0---------------------------------------------------------------------------- 
There was a man on the road about an hour ago                                 

-1---------------------------------------------------------------------------- 
-3---------------------------------------------------------------------------- 
-2---------------------------------------------------------------------------- 
-0---------------------------------------------------------------------------- 
------------------------------------------------------------------------------ 
------------------------------------------------------------------------------ 
And he was looking for a ride to New Mexico                                   

-1----------------------------3----------------------------------------------- 
-1----------------------------1----------------------------------------------- 
-2----------------------------0----------------------------------------------- 
-3----------------------------2----------------------------------------------- 
-0----------------------------3----------------------------------------------- 
------------------------------0----------------------------------------------- 
We dive by way to fast to know                                                

-3---------------------------------------------------------------------------- 
-1---------------------------------------------------------------------------- 
-0---------------------------------------------------------------------------- 
-2---------------------------------------------------------------------------- 
-3---------------------------------------------------------------------------- 
-0---------------------------------------------------------------------------- 
Then we got to the place on a high speed chase                                

-1---------------------------------------------------------------------------- 
-3---------------------------------------------------------------------------- 
-2---------------------------------------------------------------------------- 
-0---------------------------------------------------------------------------- 
------------------------------------------------------------------------------ 
------------------------------------------------------------------------------ 
There was a girly in the coner witht he plastic face                          

-1-------------------------------3-------------------------------------------- 
-1-------------------------------1-------------------------------------------- 
-2-------------------------------0-------------------------------------------- 
-3-------------------------------2-------------------------------------------- 
-0-------------------------------3-------------------------------------------- 
---------------------------------0-------------------------------------------- 
Then she disapeared without a trace....i siad without a trace                 

------------------------------------------------------------------------------ 
------------------------------------------------------------------------------ 
------------------------------------------------------------------------------ 
------------------------------------------------------------------------------ 
------------------------------------------------------------------------------ 
------------------------------------------------------------------------------ 
The song countinues with this chord porgression....                           




--------------------

version 2






intro
G Am C G

  G                                                         Am
There was a man on the road about an hour ago, and he was lookin'

                                      C
for a ride to New Mexico . We were drivin by, way to fast to know.

         G                                                 Am
Well we got the place on a high speed chase, there was a girly in

                           C                                 G
corner with a plastic face. Then she disappeared without a trace.


I said without a trace .

G  Am   C
3   0   O
3   1   1
0   2   0
0   2   2
2   0   3
3   0   0


solo


2:13
-3p0---------------------------------------------------------|
-----3p0-----------------------------------------------------|
---------2p0-----0---2---0---2---2---2---0---2---0---2---0---|
-------------2p0---------------------------------------------|
-------------------------------------------------------------|
-------------------------------------------------------------|

2:18
-----12--12--12------12--12--12------15--15--12--15--12--15--12-|
-----12--12--12------12--12--12------15--15--12--15--12--15--12-|
----------------------------------------------------------------|
----------------------------------------------------------------|
----------------------------------------------------------------|
----------------------------------------------------------------|

6 per count
2:22
-15p12----------------------------------------------------------------------------------|
-------15p12----------------------------------------------------------------------------|
-------------14p12-14----12----------------12----14----14----12----b14---12----14----12-|
-------------------------------14----12h14-------14----14----12----b14---12----14----12-|
----------------------------------------------------------------------------------------|
----------------------------------------------------------------------------------------|

2:26
----------------------------------------------------------------------------------------|
----------------------------------------------------------------------------------------|
-------------------12----------------12----14----b14---12----------12----b14---12-------|
-------12----14----------------12h14-------------------------14-------------------------|
-12h14----------------------------------------------------------------------------------|
----------------------------------------------------------------------------------------|


2:29
----------------------------------------------------------------------------------------|
-12h13-12----13----------12h13-12----13----12-------------------------------------------|
-------------------------------------------------14----12h14-12-------------------------|
-------------------------------------------------------------------14----12-------------|
----------------------------------------------------------------------------------------|
----------------------------------------------------------------------------------------|

2:34
-15-14-12-14-12-------------------------------------------------------------------------|
----------------15----13----12----b13---12----------------------------------------------|
-------------------------------------------14-12-b14---b14---12----12p10-------10----12-|
-------------------------------------------------------------------------12-------------|
----------------------------------------------------------------------------------------|
----------------------------------------------------------------------------------------|

2:38
----------------------------------------------------------------------------------------|
----------------------------------------------------------------------------------------|
-b14---12----b14---b14------12----b14---b14---------------------------------------------|
----------------------------------------------------------------------------------------|
----------------------------------------------------------------------------------------|
----------------------------------------------------------------------------------------|






---------------
Want More Free Lessons?

Browse through the Archive!

PROBLEM WITH THIS TAB? | VIEW FULL SCREEN | PRINT

Knoxville, Start Saving up to 70% at Half Off Depot. Start Saving Now!Buy Now