Lessons/Tabs are sorted alphabetically.

Tab Vault

PROBLEM WITH THIS TAB?   VIEW FULL SCREEN   PRINT

3 Am

Oar
3 Am by Oar





                            3 Am











-5---5---7--------------------------------------------------------------------|
-5---6---8--------------------------------------------------------------------|
-6---7---9--------------------------------------------------------------------|
-7---7---9--------------------------------------------------------------------|
-7---5---7--------------------------------------------------------------------|
-5----------------------------------------------------------------------------|
 Intro

-5-5---10---12----------------------------------------------------------------|
-5-5---10---12----------------------------------------------------------------|
------------------------------------------------------------------------------|
------------------------------------------------------------------------------|
------------------------------------------------------------------------------|
------------------------------------------------------------------------------|
 Verse

-5---5---7--------------------------------------------------------------------|
-5---6---8--------------------------------------------------------------------|
-6---7---9--------------------------------------------------------------------|
-7---7---9--------------------------------------------------------------------|
-7---5---7--------------------------------------------------------------------|
-5----------------------------------------------------------------------------|
 Chourus- Strum chords     




solo




 E -15-17-------------------------------------------------------------------|
 B 12-----17-14h15p14-12---12----------------------12-b13-b1314-15-15-15----|
 G ---------------------14----14-11-14--11-11-14-14-------------------------|
 D -------------------------------------------------------------------------|
 A -------------------------------------------------------------------------|
 E -------------------------------------------------------------------------|

 E -1716171616 14-12-----12-----------------------------|
 B -------------------15----15--14-15-14----------------|
 G -------------------------------------16-14-16-14--14-|
 D ------------------------------------------------16---|
 A -----------------------------------------------------|
 E -----------------------------------------------------|

 E ----------------------------------|
 B ----------------------------------|
 G ----------14-16-b16-b16-14--------|
 D 14-14-h16-----------------1616-14-|
 A ----------------------------------|
 E ----------------------------------|

 E -------------------------------|
 B -----------------------14--17--|
 G ------------------14-16--------|
 D ---------14-14-16--------------|
 A 14-16-16-----------------------|
 E -------------------------------|






------------
Want More Free Lessons?

Browse through the Archive!

PROBLEM WITH THIS TAB? | VIEW FULL SCREEN | PRINT

""