Lessons/Tabs are sorted alphabetically.

Tab Vault

PROBLEM WITH THIS TAB?   VIEW FULL SCREEN   PRINT

Reckless

I Heart Hiroshima
Reckless by I Heart Hiroshima





                    Reckless 




Tuning: Standard



Verses 0:11
"i'll lead you on...."
e ----------------------------------------------------|
B ----------------------------------------------------|
G -7-5-9-5----12--------------------------------------|  repeat twice and then
D ----------------------------------------------------|
A ----------------------------------------------------|
E ----------------------------------------------------|


e ----------------------------------------------------|
B ----------------------------------------------------|
G -7-5-10-9-------------------------------------------|
D ----------------------------------------------------|
A ----------------------------------------------------|
E ----------------------------------------------------|

e -----------------------------------------------------|
B -----------------------------------------------------|
G -7-5-9-5----5----------------------------------------|
D -----------------------------------------------------|
A -----------------------------------------------------|
E -----------------------------------------------------|

Chorus 0:45
"you are so......"
e ----------------------------------------------------|
B ----------------------------------------------------|
G ---5-------------7----------------------------------|
D ----8-10-8-10-----8-10-8-10-------------------------|  repeat twice
A ----------------------------------------------------|
E ----------------------------------------------------|

then

e ---------|
B ---------|
G ---7-----| ( NOTE: you practically just repeat 7 in time with the song until the next 
which just repeats the above)
D ---------|
A ---------|
E ---------|






----------
Want More Free Lessons?

Browse through the Archive!

PROBLEM WITH THIS TAB? | VIEW FULL SCREEN | PRINT

Free Shipping on Wheels at TireBuyer.comProAudioStar.com Lowest Prices, Live Chat, Great Service