Lessons/Tabs are sorted alphabetically.

Tab Vault

PROBLEM WITH THIS TAB?   VIEW FULL SCREEN   PRINT

The Way I Live

Baby Boy Da Prince
The Way I Live by Baby Boy Da Prince






                             The Way I Live





Tuning:Standard

e|---------------------------------------------------------------------------|
B|---------------------------------------------------------------------------|
G|----------------2------2---------------------------------------------------|
D|--5-2----5-2------3------3-------------------------------------------------|
A|3------3------5------5-----------------------------------------------------|
E|---------------------------------------------------------------------------|


| /  slide up
|   slide down
| h  hammer-on
| p  pull-off
| ~  vibrato
| +  harmonic
| x  Mute note



--------------------

version 2




Standard tuning: eadgbe
     Just keep playing this part throughout the whole song!

E|-------------------------------------------------------------------|
B|-------8---------8-----------10---------10-------------------------|
G|-------5---------5-----------7----------7--------------------------|
D|--5--2------5--2--------7--3-------7--3----------------------------|
A|3--------3---------3-5----------5----------------------------------|
E|-------------------------------------------------------------------|

   That’s Just about it. Not too hard. You can change it up by doing this:

     p   .5    p   .5      p   .5     p   .5
E|-------------------------------------------------------------------|
B|-------8---------8-----------10---------10-------------------------|
G|-------5---------5-----------7----------7--------------------------|
D|--5p2-------5p2---------7p3--------7p3-----------------------------|
A|3--------3---------3-5----------5----------------------------------|
E|-------------------------------------------------------------------|

  


|p - Pull-off
|h - Hammer-on 






------------
Want More Free Lessons?

Browse through the Archive!

PROBLEM WITH THIS TAB? | VIEW FULL SCREEN | PRINT

Rebel CircusWolfgang's Vault - reissue