Lessons/Tabs are sorted alphabetically.

Tab Vault

PROBLEM WITH THIS TAB?   VIEW FULL SCREEN   PRINT

Accidentist

A Different Breed Of Killer
Accidentist by A Different Breed Of Killer





             Accidentist 








riff 1) 0-24

B-----------------------------------|----|
F#----------------------------------|----|
D-----------------------------------|----|
A-----------------------------------|--0-|
E--------3p2-----------2p1-----1p0--|--0-|
A--b4-b4--------b3-b3-------2-------|--0-|after 12th time


riff 2) 27-34
B--------------|-------------|
F#-------------|-------------|
D-----5-----4--|-------4-4-4-|
A-4-4-5-3-3-4--|--3-3--4-4-4-|
E-4-4-3-3-3-2--|--3-3--2-2-2-|
A-4-4---3-3----|--3-3--------|4th time

riff 3) 34-55 (tremolo picked)
B----------|
F#---------|
D----------|
A----------|
E-0-8-7--6-|
A------6---|

riff 4) 56-110
B----------------|
F#---------------|
D----------------|
A----------------|
E-7-7/12-11-6-11-|
A----------------|

riff 5) 111-136
A-----------------------------------------------------|----|
F#-------------16*------------------------------------|----|
D-----------------15*---------------------------------|----|
A-1-0-1-1-0-0---------13*---1-0-1-1-0-0---------------|-0--|
E-1-0-1-1-0-0---------------1-0-1-1-0-0-444444-3333-0-|-0--|
A-1-0-1-1-0-0---------------1-0-1-1-0-0---------------|-0--|7th time

riff 6) 139-222
B------------------------------------------------------------------------|
F#-----------------------------------------------------------------------|
D-------14-12-------14-15-------14-12------17-15------14-12--------14-15-|
A--12-15------12-15-------12-15-------12-15------12-15------12-15--------|
E------------------------------------------------------------------------|
A------------------------------------------------------------------------|

B-------------------------|
F#------------------------|
D-------17-15-14-15-14-12-|
A--12-15------------------|
E-------------------------|
A-------------------------|

B--------------------------------------------------------------------------|
F#-------------------------------------------13-15-------------------------|
D--------14-12-------14-15--------14-12------------------14-12-------14-15-|
A--12-15-------12-15--------12-15------12-15-------12-15--------12-15------|
E--------------------------------------------------------------------------|
A--------------------------------------------------------------------------|

B--------------------------|
F#---------------------15--|
D-------17-15-14-15-14-----|
A-12-15--------------------|
E--------------------------|
A--------------------------|

B---
F#--
D---
A-0-
E-0-
A-0-

riff 7) 230-258

B--------|
F#-------|
D--------|
A--------|
E--------|
A-0-0-00-|

B---------|
F#--------|
D---------|
A-0-0-0-0-|
E-0-0-0-0-|
A-1-1-1-1-|

riff 8) 300-314 (tap riff)
B----------------------------|
F#---------------------------|
D-7t10-6t9-7t10-12t15-11t14--|
A----------------------------|
E----------------------------|
A----------------------------|



A cheap suffocation.
A bloody genocide.
I feel your breath escaping.
This time it won't take long.
Bringing all to ruin,
I will set flames unto the body
that lies undone
and when your life passes through your eyes
I won't remember you or your disgusting fate
the unyielding fear the relentless pain.
I won't remember you.
I'll rip your body up.
And slam it to theground.
There's fear inside your eyes.
There's no escaping now.
I said to bring the bullets.
You said you'd bring them all.
You said you'd bring the bullets.
I'll watch your bodies fall.
I'll rip your body up.
And slam it to the ground.
There's fear inside your eyes.
There's no escaping now.
I won't think of you, Or your disgusting fate.
The unyielding fear.
The relentless pain.
Run out your guns!
Your ship is sinking!
Run out your guns!
This is the day!
Run out your guns!
Your ship is sinking!
Run out your guns!
Lets make this a massacre!






--------------------

version 2



b |------------------------------------------------|
f#|----10--------10-11-------10--------13-11-------|
D |-------12--------------------12-----------------|
A |-00--------00-------00----------00--------------|
E |------------------------------------------------|
A |------------------------------------------------|

b |------------------------------------------------|
f#|----- 10-------10-11------13-11-10-11-10-8------|
D |--------12--------------------------------------|
A |---00-------00-------00-------------------------|
E |------------------------------------------------|
A |------------------------------------------------|

b |-------------------------------------------------|
f#|----10--------10-11-------10---------13-11-------|
D |-------12--------------------12------------------|
A |-00--------00-------00------------00-------------|
E |-------------------------------------------------|
A |-------------------------------------------------|

b |------------------------------------------------|
f#|----- 10-------10-11------13-11-10-11-10~-------|
D |--------12--------------------------------------|
A |---00-------00-------00-------------------------|
E |------------------------------------------------|
A |------------------------------------------------|

After two times through the chugs come in, You play the riff 6
times through, if you break the riff up into two parts
its 12 times, 





-------------
Want More Free Lessons?

Browse through the Archive!

PROBLEM WITH THIS TAB? | VIEW FULL SCREEN | PRINT

Fly Roundtrip for $149 or less. Discount Flights GUARANTEED. Book Now!Philadelphia hockey tickets