Lessons/Tabs are sorted alphabetically.

Tab Vault

PROBLEM WITH THIS TAB?   VIEW FULL SCREEN   PRINT

Payback

Quarashi
Payback by Quarashi





                              Payback 







Gtr I (Eb Ab Db Gb Bb Eb)

 

   87 BPM
   4/4

INTRO RIFF
        PM| ~~~~~~~~PM----| ~~~~~~~~      PM|
||----------------------------------|---------0---0-0-0-0----------------||
||o---------------------------------|---------0---0-0-0-0-0-0-0-0-0-0-0-o||
||----------7-7-7-7---------7-7-7-7-|---------2b4-4-4-4-4r2-2-2-2-1-1-1--||
||------------------2-2-2-2---------|------------------------------------||
||o-5h7-------------2-2-2-2---------|-5h7-------------------------------o||
||--0-0-0-0-0-0-0-0-0-0-0-0-0-0-0-0-|-0-0-0-0----------------------------||


VERSE
                            PM----|     PM----|     PM|  x4
||--------------------|----------------------------------||-|
||o-------------------|---------------------------------o||-|
||--------------------|----------------------------------||-|
||----------5---------|----------------------------------||-|
||o-5h7-------6-5-----|-5h7---------5h7---------5h7-----o||-|
||----------------7-6-|-0-0-0-0-0-0-0-0-0-0-0-0-0-0-0-0--||-|


                            PM----|     PM----|     PM|
||--------------------|----------------------------------|
||o-------------------|----------------------------------|
||--------------------|----------------------------------|
||--------------------|----------------------------------|
||o-5h7-----6-5-4-3-2-|-5h7-7-7-7-7-5h7-7-7-7-7-5h7-7-7--|
||--------------------|-0-0-6-6-6-6-0-0-6-6-6-6-0-0-6-6--|


                          PM----|     PM----|     PM|
|-------------------|---------------------------------*|
|-------------------|---------------------------------*|
|-------------------|---------------------------------*|
|-------------------|---------------------------------*|
|-5h7-----6-5-------|-5h7-7-7-7-7-5h7-7-7-7-7-5h7-7-7-*|
|-------------7-6-5-|-0-0-6-6-6-6-0-0-6-6-6-6-0-0-6-6-*|

CHORUS
||----------------------------------|----------------------------------|
||o---------------------------------|----------------------------------|
||--4-4-4-4-4-4-4-4-4-4-4-4-4-4-4-4-|-5-5-5-5-5-5-5-5-5-5-5-5-5-5-5-5--|
||----------------------------------|----------------------------------|
||o-2-2-2-2-2-2-2-2-2-2-2-2-2-2-2-2-|-3-3-3-3-3-3-3-3-3-3-3-3-3-3-3-3--|
||--0-0-0-0-0-0-0-0-0-0-0-0-0-0-0-0-|-0-0-0-0-0-0-0-0-0-0-0-0-0-0-0-0--|


|---------------------------------|------------------------------------||
|---------------------------------|-----------------------------------o||
|-6-6-6-6-6-6-6-6-6-6-6-6-6-6-6-6-|-7-7-7-7-7-7-7-7-7-7-7-7-7-7-7-7----||
|---------------------------------|------------------------------------||
|-4-4-4-4-4-4-4-4-4-4-4-4-4-4-4-4-|-5-5-5-5-5-5-5-5-5-5-5-5-5-5-5-5---o||
|-0-0-0-0-0-0-0-0-0-0-0-0-0-0-0-0-|-0-0-0-0-0-0-0-0-0-0-0-0-0-0-0-0----||


BRIDGE
   PM|        PM----|
||-----------|---------------||
||o----------|--------------o||
||-----------|---------------||
||--2-2------|-2-2-2-2-------||
||o-2-2------|-2-2-2-2------o||
||--0-0------|-0-0-0-0-------||





----------
Want More Free Lessons?

Browse through the Archive!

PROBLEM WITH THIS TAB? | VIEW FULL SCREEN | PRINT

"Cascio Interstate Music