Lessons/Tabs are sorted alphabetically.

Tab Vault

PROBLEM WITH THIS TAB?   VIEW FULL SCREEN   PRINT

Fundamentally Loathsome

Marilyn Manson
Fundamentally Loathsome by Marilyn Manson






                      Fundamentally Loathsome 








tunning: standard

h:hammer on
p:pull off
/:slide down
:Slide up
~:vibrator
( ):Hold it and let note ring out
b:full bend up




                                  Verse 1


e-----------7--7----------7--7----------7--7--6--5--3-3-3-3----------|
b---13--13--8--8--13--13--8--8--13--13--8--8--7--6--5-5-5-5--5-6-7-8-|
g---14--14--------14--14--------14--14-------------------------------|
d--------------------------------------------------------------------|
A--------------------------------------------------------------------|
E--------------------------------------------------------------------|

                                Chorus
e--7--7--7--7-----------10--10------------7--7------3-3-3-------------|
b--8--8--8--8--5-4-3-2--12--12--12-11-10--8--8--11--5-5-5--6--5-6-7-8-|
g-----------------------------------------------11---------7----------|
d---------------------------------------------------------------------|
A---------------------------------------------------------------------|
E---------------------------------------------------------------------|

                              Verse 2
e----------7--7----------7--7----------7--7--6--5--3--3--------6--3-|
b--13--13--8--8--13--13--8--8--13--13--8--8--7--6--5--5--5--6--7--5-|
g--14--14--------14--14--------14--14--------------------6--7-------|
d-------------------------------------------------------------------|
A-------------------------------------------------------------------|
E-------------------------------------------------------------------|

                              Chorus
e--7--7--7--7-----------10--10------------7--7------3-3-3-------------|
b--8--8--8--8--5-4-3-2--12--12--12-11-10--8--8--11--5-5-5--6--5-6-7-8-|
g-----------------------------------------------11---------7----------|
d---------------------------------------------------------------------|
A---------------------------------------------------------------------|
E---------------------------------------------------------------------|

now here comes the guitar solo, this is takes a bit more practice, just listen to the 
and you'll get it.


e--------------------------------------------------------------12b-(12)--|
b-------------------------------------------------------------12---------|
g------------------------------------------------12b--9~~~~9~9~----------|
d----7p5-------------------------7h9p7--11-12----------------------------|
A----------7-5-------4/7~~~~--7------------------------------------------|
E--------------7-5-0-----------------------------------------------------|


e----14b--12~~---12-14--12-10-12~-12/14-14-14-12-10b-12~~-10---------|
b------------------------------------------------------------12b-----|
g--------------------------------------------------------------------|
d--------------------------------------------------------------------|
A--------------------------------------------------------------------|
E--------------------------------------------------------------------|


e-----------------------------------------------------------------12/14-14---|
b----8p7h8p7h8-10b-(10)-10p8-----------------9b---11b------------------------|
g--------------------------9~~~~~~~9~~~~~~--11b---13b--9-11/12~~-9~~---------|
d----------------------------------------------------------------------------|
A----------------------------------------------------------------------------|
E----------------------------------------------------------------------------|


e----14-16-14-12-10~~12-10----------------------------------------------|
b--------------------------12~~10h11p10h11p10---------------------------|
g--------------------------------------------12-9-8/9--3/4~~~~~-0-1/2-4-|
d-----------------------------------------------------------------------|
A-----------------------------------------------------------------------|
E-----------------------------------------------------------------------|

e---------------------------------------------------------------------|
b---------------------------------------------------------------------|
g----7-9-11/12-12-11-12/14-12-12~~~~~~~~~~~~~~------------------------|
d---------------------------------------------------------------------|
A---------------------------------------------------------------------|
E---------------------------------------------------------------------|

the guitar becomes more quite after the solo but if you listen carefully you can here 
last the measures being played or you could play the power cords C,B,A then A,B,C in that 
during the "...shoot myself for loving you part"instead.









I wanna wake up in your white, white sun
I wanna wake up in your world with no pain
But I'll just suffer in a hope to die someday
While you are numb all of the way

When I hate it I know I can feel but
When you love it you know it's not real
No
And I am resigned to this wicked fucking world
On its way to hell
The living are dead and
I hope to join them too
I know what to do and I do it well...

When I hate it I know I can feel but
When you're in love you know it's not real
No

Shoot myself to love you
If I loved myself I'd be shooting you












---------------

version 2









     h=hammer on note
               p=pull off note
               s=slide to note
               r=release bend
               ^=hold bend
               //=slide up to infinity
               \\=slide down to infinity
               ~~=tremolo





          e|-------------------------------------------------------------------
          b|-------------------------------------------------------------------
          g|-----------------------------------------------------------------7-
          d|---------5h7p-----------------------------------7------7--9--------
          a|--------------- h7--5---------7~~------/7--10----10----------------
          e|-----------------------3\\-0-//------------------------------------

          cont.
          e|---------------------------------------10b12-----------------------
          g|----8~~-------------------//9s12-----------------------------------
          d|-9--------9~~\\----------------------------------------------------
          a|-------------------------------------------------------------------
          e|-------------------------------------------------------------------

          e|-------^12r10s14b15r14--12---------14b15--^15-^15r14--12s10s12\\---
          b|-------------------------------------------------------------------
          g|-------------------------------------------------------------------
          d|-------------------------------------------------------------------
          a|-------------------------------------------------------------------
          e|-------------------------------------------------------------------

          cont.
          e|-----14b15--^15-^15r----12~~----10s12~~----------------------------
          b|-------------------------------------------------------------------
          g|-------------------------------------------------------------------
          d|-------------------------------------------------------------------
          a|-------------------------------------------------------------------
          e|-------------------------------------------------------------------

          e|------12s7~~\\-----------------------------------------------------
          b|------------------8p7-8p7-8--10b11r--p8p--------------------------8
          g|------------------------------------------------h9--9~~~~-------//9
          d|-------------------------------------------------------------------
          a|-------------------------------------------------------------------
          e|-------------------------------------------------------------------

          cont.
          e|--------------------------------------------------12-12------------
          b|--10b11r--p8p------8b10--------------------------------------------
          g|----------------------h9---------9~~~------------------------------
          d|-------------------------------------------------------------------
          a|-------------------------------------------------------------------
          e|-------------------------------------------------------------------

          e|----------12s14-14-14-14-14-14s16--14s12s10-10-10-10-10-10-10-10s12
          b|-------------------------------------------------------------------
          g|-------------------------------------------------------------------
          d|-------------------------------------------------------------------
          a|-------------------------------------------------------------------
          e|-------------------------------------------------------------------

          cont.
          e|-12-12-12s10s7~~\\---6h7-6----------------------------------------
          b|---------------------------------------------------8---------8----
          g|------------------------------------------------------9--9--------
          d|------------------------------------------------------------------
          a|------------------------------------------------------------------
          e|------------------------------------------------------------------

          e|------------------------------------------------------------------
          b|-----------------------------------------7h8--7--7s10s8~~~~-------
          g|-----------------------------------7h9----------------------------
          d|-------9~~\\----------------7s9-----------------------------------
          a|--------------------//7h10----------------------------------------
          e|------------------------------------------------------------------









I wanna wake up in your white, white sun
I wanna wake up in your world with no pain
But I'll just suffer in a hope to die someday
While you are numb all of the way

When I hate it I know I can feel but
When you love it you know it's not real
No
And I am resigned to this wicked fucking world
On its way to hell
The living are dead and
I hope to join them too
I know what to do and I do it well...

When I hate it I know I can feel but
When you're in love you know it's not real
No

Shoot myself to love you
If I loved myself I'd be shooting you









---------------

version 3









h:hammer on
p:pull off
/:slide down
\:Slide up
~:vibrator
( ):Hold it
r:releas

                                                                   Full
Solo start's     2:12-13 min                                       /\
                                                     full         /  \
1|---------------------------------------------------/-----------12-(12)--
2|--------------------------------------------------/-----------12--------
3|------------------------------------------------12--9~~~~9~9~-----------
4|----5h7p5-------------------------7h9p7-9-11-12-------------------------
5|----------7-5------0-4/7~~~~--7----------------------------------------
6|--------------7-5-0-----------------------------------------------------
        Full            Full
Continue/               /                                     full
1|----14--12~~---12-14--12-10-12~-12/14-14-14-12-10-12~~-10-/---------
2|----------------------------------------------------------12--------
3|--------------------------------------------------------------------
4|--------------------------------------------------------------------
5|--------------------------------------------------------------------
6|--------------------------------------------------------------------
                  Full
Comtinue          /\
1|---------------/--\----------------------------------------------12/14-14
2|----8p7h8p7h8-10-(10)-10p8-----------------9----11-----------------------
3|--------------------------9~~~~~~~9~~~~~~--11---13--9-11/12~~-9~~--------
4|---------------------------------------------\---\-----------------------
5|----------------------------------------------\---\----------------------
6|---------------------------------------------Full--Full------------------

Continue
1|----14-16-14-12-10~~12-10--------------------------------------------
2|------------------------12~~10h11p10h11p10---------------------------
3|------------------------------------------12-9-8/9--3/4~~~~~-0-1/2-4-
4|---------------------------------------------------------------------
5|---------------------------------------------------------------------
6|---------------------------------------------------------------------

Continue
1|---------------------------------------------------------------------|
2|---------------------------------------------------------------------|
3|----7-9-11/12-12-11-12/14-12-12~~~~~~~~~~~~~~------------------------|
4|---------------------------------------------------------------------|
5|---------------------------------------------------------------------|
6|---------------------------------------------------------------------|









I wanna wake up in your white, white sun
I wanna wake up in your world with no pain
But I'll just suffer in a hope to die someday
While you are numb all of the way

When I hate it I know I can feel but
When you love it you know it's not real
No
And I am resigned to this wicked fucking world
On its way to hell
The living are dead and
I hope to join them too
I know what to do and I do it well...

When I hate it I know I can feel but
When you're in love you know it's not real
No

Shoot myself to love you
If I loved myself I'd be shooting you









----------
Want More Free Lessons?

Browse through the Archive!

PROBLEM WITH THIS TAB? | VIEW FULL SCREEN | PRINT

NOCO Genius. Faster. Safer. Smaller.LifeLock.com