Lessons/Tabs are sorted alphabetically.

Tab Vault

PROBLEM WITH THIS TAB?   VIEW FULL SCREEN   PRINT

Disposable Teens

Marilyn Manson
Disposable Teens by Marilyn Manson






                    Disposable Teens






Drop D

Free Time:

e-----------------------------------------------------------------
b--------------------------------------------------10-------------
g--------------------------------------------------12b-r----------
d-----------------------------------------------------------------
a-----------------------------------------------------------------
d-----------------------------------------------------------------

Fig 1.
e-----------------------------------------------------------------
b-----------------------------------------------------------------
g-7--7--5-10b---7--7----7--5--7-----------------------------------
d-7--7--5-10b---7--7----7--5--7-----------------------------------
a-5--5--3--8----5--5----5--3--5-----------------------------------
d----------------------------------0---0--------------------------

(0:16)

Fig 2.
e-----------------------------------------------------------------
b-----------------------------------------------------------------
g-----------------------------------------------------------------
d-0-----------0-0------------------0-----------0-0--------0-3br---
a-0-----------0-0------------------0-----------0-0--------0-3br---
d-0---0-0-0-0-0-0----0-0-0-0-0-0-0-0---0-0-0-0-0-0----0-0-0-3br---

Verses: Fig 2.
Pre Chorus/Chorus: Fig 1.

Bridge:

e-----------------------------------------------------------------
b-----------------------------------------------------------------
g-5-5-5-5-5-5-5-5-5-5-5-5-5-5-5-5-5-5-5-5-5-5-5-5-5-5-5-5-5-6-6-6-
d-5-5-5-5-5-5-5-5-5-5-5-5-5-5-5-5-5-5-5-5-5-5-5-5-5-5-5-5-5-6-6-6-
a-3-3-3-3-3-3-3-3-3-3-3-3-3-3-3-3-3-3-3-3-3-3-3-3-3-3-3-3-3-4-4-4-
d-----------------------------------------------------------------

e-----------------------------------------------------------------
b-----------------------------------------------------------------
g-----------------------------------------------------------------
d-------3b---3b-------------------------3b---3b-------------------
a-5-5-3----------5--5-3-5---5---5---5-3-----------5--5-3-5--5---5-
d-----------------------------------------------------------------

Outro:

e-----------------------------------------------------------------
b-----------------------------------------------------------------
g-7--7--5-10b---7--7----7--5--7-----------------------------------
d-7--7--5-10b---7--7----7--5--7-----------------------------------
a-5--5--3--8----5--5----5--3--5-----------------------------------
d----------------------------------0---0---0----------------------










--------------------

version 2










Tuning: Normal

Intro

e|---------------------------------------------------------------------------|
B|---------------------------------------------------------------------------|
G|---------------------------------------------------------------------------|
D|--7-7--5--10--7-7-7-7--5--7-----7-7-7--------------------------------------|
A|--7-7--5--10--7-7-7-7--5--7--pm-7-7-7---X2---------------------------------|
E|--5-5--3--8---5-5-5-5--3--5-----5-5-5--------------------------------------|
  
Verse                              
e|---------------------------------------------------------------------------|
B|---------------------------------------------------------------------------|
G|---------------------------------------------------------------------------|
D|--7-7-x--7--7-7---7--7-7---7--10-12----------------------------------------|
A|--7-7-x--7--7-7---7--7-7---7--10-12----------------------------------------|
E|--5-5-x--5--5-5---5--5-5---5--8--10----------------------------------------|

Chorus
e|---------------------------------------------------------------------------|
B|---------------------------------------------------------------------------|
G|---------------------------------------------------------------------------|
D|--7-7--5--10--7-7-7-7--5--7-----7-7-7--------------------------------------|
A|--7-7--5--10--7-7-7-7--5--7--pm-7-7-7---X2---------------------------------|
E|--5-5--3--8---5-5-5-5--3--5-----5-5-5--------------------------------------|

Verse

Chorus

Interlude
e|---------------------------------------------------------------------------|
B|---------------------------------------------------------------------------|
G|---------------------------------------------------------------------------|
D|--7-7--5--10--7-7-7-7--5--7-----7-7-7--------------------------------------|
A|--7-7--5--10--7-7-7-7--5--7--pm-7-7-7---X2---------------------------------|
E|--5-5--3--8---5-5-5-5--3--5-----5-5-5--------------------------------------|

Chorus











---------------

version 3







Main Riff
eb------------------------------------------------------
Bb------------------------------------------------------
Gb------------------------------------------------------
Db-5--5--3-----8----5--5--5------3--5---x-x-x-----------
Ab-7--7--5----10----7--7--7------5--7---x-x-x-----------
Eb-x--x--x-----x----x--x--x------x--x---x-x-x-----------


Riff 2
eb--------------------------------------------------
Bb--------------------------------------------------
Gb--------------------------------------------------
Db-2-2-x-x-x-x-2-2-x-x2-2-x-x-x-x-x-x---------------
Ab-2-2-x-x-x-x-2-2-x-x2-2-x-x-x-x-x-x---------------
Eb-0-0-x-x-x-x-0-0-x-x0-0-x-x-x-x-x-x---------------

Riff 2 (cont)
eb--------------------------------------------------
Bb--------------------------------------------------
Gb--------------------------------------------------
Db-2-2-x-x-x-x-2-2-x-2-2-x-x-0-3-0-3----------------
Ab-2-2-x-x-x-x-2-2-x-2-2-x-x-0-3-0-3----------------
Eb-0-0-x-x-x-x-0-0-x-0-0-x-x-0-3-0-3----------------


Riff 3 (Guitar 2 during riff 1)
eb--------------------------------------------------
Bb--------------------------------------------------
Gb--------------------------------------------------
Db-0-----6------7^----------------------------------
Ab--------------------------------------------------
Eb--------------------------------------------------

Riff 4   Fill
eb----------------|-------------------------
Bb----------------|-------------------------
Gb-3-------4-5----|-------------------------
Db-4-X(23)-5-6----|--7---8------------------
Ab-5-------6-7----|--5---6------------------
Eb----------------|--x---x------------------



Riff 1
Riff 2
Riff 1
Riff 2
Riff 1 (w/ Riff 3)
Riff 4
Break
Fill
Riff 1 (w/ Riff 3)











---------------

version 4







Turning:D.

p:pull off
h:hammer on
/\:Slide

Intro

1|------------|
2|----15------|
3|----14------|
4|------\-----|
5|-------\----|
6|------Full--|


1|----------------------------------------|
2|----------------------------------------|
3|----9-9--7/12--9-9-9-9--7--9--x-x-x-----|
4|----9-9--7/12--9-9-9-9--7--9--x-x-x-----|  Repeat 4 times
5|----7-7--5/10--7-7-7-7--5--7--x-x-x-----|
6|----------------------------------------|

Verse A

1|---------------------------------------------------------------|
2|---------------------------------------------------------------|
3|---------------------------------------------------------------|
4|----0-0--x-x--0-0-0-0--x-x-x-x--0-0--x-x--0-0-0-0--0h3-0h3-0---|Repeat 
5|----0-0--x-x--0-0-0-0--x-x-x-x--0-0--x-x--0-0-0-0--0h3-0h3-0---|  3 times
6|----0-0--x-x--0-0-0-0--x-x-x-x--0-0--x-x--0-0-0-0--0h3-0h3-0---|

Chorus

1|---------------------------------------|
2|---------------------------------------|
3|----9-9--7/12--9-9-9-9--7--9--x-x------|
4|----9-9--7/12--9-9-9-9--7--9--x-x------|  Repeat 2 times
5|----7-7--5/10--7-7-7-7--5--7--x-x------|
6|---------------------------------------|

Verse B

1|---------------------------------------------------------------|
2|---------------------------------------------------------------|
3|---------------------------------------------------------------|
4|----0-0--x-x--0-0-0-0--x-x-x-x--0-0--x-x--0-0-0-0--0h3-0h3-0---|Repeat 
5|----0-0--x-x--0-0-0-0--x-x-x-x--0-0--x-x--0-0-0-0--0h3-0h3-0---|  2 times
6|----0-0--x-x--0-0-0-0--x-x-x-x--0-0--x-x--0-0-0-0--0h3-0h3-0---|

Chorus

1|---------------------------------------|
2|---------------------------------------|
3|----9-9--7/12--9-9-9-9--7--9--x-x------|
4|----9-9--7/12--9-9-9-9--7--9--x-x------|  Repeat 4 times
5|----7-7--5/10--7-7-7-7--5--7--x-x------|
6|---------------------------------------|

Riff

1|---------------------------------------------------------------|
2|---------------------------------------------------------------|
3|---------------------------------------------------------------|
4|----0-0--x-x--0-0-0-0--x-x-x-x--0-0--x-x--0-0-0-0--0h3p0-3p0---|Repeat 
5|----0-0--x-x--0-0-0-0--x-x-x-x--0-0--x-x--0-0-0-0--0h3p0-3p0---|  2 times
6|----0-0--x-x--0-0-0-0--x-x-x-x--0-0--x-x--0-0-0-0--0h3p0-3p0---|

Chorus

1|---------------------------------------|
2|---------------------------------------|
3|----9-9--7/12--9-9-9-9--7--9--x-x------|
4|----9-9--7/12--9-9-9-9--7--9--x-x------|  Repeat 6 times
5|----7-7--5/10--7-7-7-7--5--7--x-x------|
6|---------------------------------------|

Brigde

1|---------------------------------------|
2|---------------------------------------|
3|----7-----------------7/9--------------|
4|----7--31times then---7/9--------------|
5|----5-----------------5/7--------------|
6|---------------------------------------|

Riff 2

This Riff 2 is like this,from live, john5 did like this but I Don't know
he did in this cd.

1|-----------------------------------------|
2|----15-----------------------------------|
3|----14----4times Then-------7-9----------|
4|------\---------------------7-9----------|
5|-------\--------------------5-7----------|
6|------Full-------------------------------|

Chorus

1|---------------------------------------|
2|---------------------------------------|
3|----9-9--7/12--9-9-9-9--7--9--x-x------|
4|----9-9--7/12--9-9-9-9--7--9--x-x------|  Repeat 12 times
5|----7-7--5/10--7-7-7-7--5--7--x-x------|
6|---------------------------------------|













---------------

version 5






\= slide to higer notes
  /= slide to lower notes
  b= bend ( duh ) lol
  x= muffled notes

  ---12/slide-----------------------------------------|
  ----------------------------------------------------|
  ----------------------------------------------------|  times 2
  ----------------------------------------------------|
  --------------------0--(b4)---------0---------------|
  ---------------7-7---------7-7-7-7-----7------------|

  -------------------------------------------------------------------|
  -------------------------------------------------------------------|
  ---------------------------------------------------------- times 2-|
  -------------------------------------------------------------------|
  -------------------------------------------------------------------|
  -0-0-x-x-x-x-0-0-x-x-x-x-x-x-x-0-0-x-x-x-x-0-0-x-x-3-2-3-2---------|


  ----------------------------------------------------|
  ----------------------------------------------------|
  ----------------------------------------------------|  times 4
  ----------------------------------------------------|
  --------------------0--(b4)---------0---------------|
  ---------------7-7---------7-7-7-7-----7------------|


  -------------------------------------------------------------------|
  -------------------------------------------------------------------|
  ---------------------------------------------------------- times 2-|
  -------------------------------------------------------------------|
  -------------------------------------------------------------------|
  -0-0-x-x-x-x-0-0-x-x-x-x-x-x-x-0-0-x-x-x-x-0-0-x-x-3-2-3-2---------|

  ----------------------------------------------------------|
  ----------------------------------------------------------|
  ----------------------------------------------------------|
  ----------------------------------------------------------|
  ----------------------------------------------------------|
  -0-0-0-0-0-0-0-0-0-0-0-0-0-0-0---0-0-0-0-0-0-0-0-0-0-1\12-|








---------------
Want More Free Lessons?

Browse through the Archive!

PROBLEM WITH THIS TAB? | VIEW FULL SCREEN | PRINT

Kreyos preorder"