Lessons/Tabs are sorted alphabetically.

Tab Vault

PROBLEM WITH THIS TAB?   VIEW FULL SCREEN   PRINT

A Place In The Dirt

Marilyn Manson
A Place In The Dirt by Marilyn Manson





                     A Place In The Dirt






Turning:Standard

*:Play 8 times

 
Intro

1|----19---15---19---15---|---------------|---19--17--15--14---|
2|------------------------|--12----12-----|--------------------|
3|------------------------|-----11----11--|--------------------|
4|------------------------|---------------|--------------------|
5|------------------------|---------------|--------------------|
6|------------------------|---------------|--------------------|

Verse
      *    *    *    *    *    *    *    *
1|----2----2----2----2----2----0----3----2--|
2|----3----2----3----2----3----2----0----2--|
3|----4----3----4----3----4----2----0----3--|
4|----4----4----4----4----4----2----0----4--|
5|----2----4----2----4----2----0----2----4--|
6|---------2---------2--------------3----2--|
      
Chorus


1|--------------------------|
2|--------------------------|
3|--------------------------|
4|----3----------6----------| Repeat 3times Then....
5|----3-6times---6-6times---|
6|----3----------6----------|

1|--------------------------|
2|--------------------------|
3|--------------------------|
4|----3--------2------------|
5|----3-6times-2-5times-----|
6|----3--------2------------|

Verse 2

1|----2----2----2----2----2----0----3----2--|
2|----3----2----3----2----3----2----0----2--|
3|----4----3----4----3----4----2----0----3--|
4|----4----4----4----4----4----2----0----4--|
5|----2----4----2----4----2----0----2----4--|
6|---------2---------2--------------3----2--|
      *    *    *    *    *    *    *     
Chorus
 
1|---------------------------|
2|---------------------------|
3|---------------------------| 
4|----3--------6-------------| Repeat 3times then.....
5|----3-6times-6-6times------|
6|----3--------6-------------|

1|---------------------------|
2|---------------------------|
3|---------------------------|
4|----3--------2-------------|
5|----3-6times-2-5times------|
6|----3--------2-------------|


Outro
      *    *    *    *    *    *    *    *
1|----2----2----2----2----2----0----3----2--|
2|----3----2----3----2----3----2----0----2--|
3|----4----3----4----3----4----2----0----3--|
4|----4----4----4----4----4----2----0----4--|
5|----2----4----2----4----2----0----2----4--|
6|---------2---------2--------------3----2--|








We are damned and we are dead
all god's children to be sent
to our perfect place in the sun
and in the dirt

There's a windshield in my heart
we are bugs so smeared and scarred
and could you stop the meat from thinking
before I swallow all of it,
could you please?

Put me in the motorcade
put me in the death parade
dress me up and take me
dress me up and make me
your dying god

angels with needles
poked through our eyes
let the ugly light
of the world in
we were no longer blind
we were no longer blind

Put me in the motorcade
put me in the death parade
dress me up and take me
dress me up and make me
your dying god

Now we hold the "ugly head"
the Mary-whore is at the bed
They've cast the shadow of our perfect death
in the sun and in the dirt.








------------------

version 2








NOTE: * = strum 8x

Intro (Gtr. 2) (w/ octave pedal set one step higher)
E|-19~~~~--------19~~~----------|
B|--------19~~~----------19~~~--|
               ^ turn off octave pedal

Verse (Gtr. 2) (“We are damned……”)
E|-----------------------19----17----15----14--\---|
B|--12------12-------------------------------------|
G|------11------11---------------------------------|

Verse P2 (Gtr. 1) (“There’s a windshield……”) (clean)
E|--2*--2*--2*--2*--2*--0*--3*--2*---|
B|--3*--2*--3*--2*--3*--2*--0*--2*---|
G|--4*--3*--4*--3*--4*--2*--0*--3*---|
D|--4*--4*--4*--4*--4*--2*--0*--4*---|
A|--2*--4*--2*--4*--2*--0*--2*--4*---|
E|------2*------2*----------3*--2*---|

Verse P2 (Gtr. 2) (w/ octave pedal set one step higher)
e|--19-----17---15---14----|
             ^ turn off octave pedal ("Could you stop...")

Verse P2 (Gtr. 3) (“Could you please…….”)
B|-----12-12-|-%-|-%-|-%-|
G|--11-------|-%-|-%-|-%-|

Chorus (w/ heavy ass dist.) (“put me in the motorcade….”)
D|-5*-8*-|-%-|-%-|-5*-2*-|
A|-5*-8*-|-%-|-%-|-5*-2*-|
E|-3*-6*-|-%-|-%-|-3*-2*-|

Verse 2/End(Gtr. 1) (Clean)
E|--2*--2*--2*--2*--2*--0*--3*--2----|
B|--3*--2*--3*--2*--3*--2*--0*--2----|
G|--4*--3*--4*--3*--4*--2*--0*--3----|
D|--4*--4*--4*--4*--4*--2*--0*--4----|
A|--2*--4*--2*--4*--2*--0*--2*--4----|
E|------2*------2*----------3*--2----|

Fill 1 (Gtr. 1) (w/ dist.)
E|-1/2-/3-|

Song Structure: -
Intro
Verse (Gtr. 2)/With weird effects in background
Verse P2 (Gtr. 1)/Verse P2 (Gtr. 2)/Verse P2 (Gtr. 3) (Gtr. 2 + Gtr. 3 come in later)
Chorus (Gtr. 1)
Verse 2 (Gtr. 1) (“Angels with needles…”)/Verse P2 (Gtr. 2) (“We were no longer…..”)
Fill 1 (Gtr. 1)
Chorus (Gtr. 1)
End (Gtr. 1)
Various Shit Effects








We are damned and we are dead
all god's children to be sent
to our perfect place in the sun
and in the dirt

There's a windshield in my heart
we are bugs so smeared and scarred
and could you stop the meat from thinking
before I swallow all of it,
could you please?

Put me in the motorcade
put me in the death parade
dress me up and take me
dress me up and make me
your dying god

angels with needles
poked through our eyes
let the ugly light
of the world in
we were no longer blind
we were no longer blind

Put me in the motorcade
put me in the death parade
dress me up and take me
dress me up and make me
your dying god

Now we hold the "ugly head"
the Mary-whore is at the bed
They've cast the shadow of our perfect death
in the sun and in the dirt.









------------------

version 3






          
          Tuning: Standard (EADGBE)
          
          Key :
          
          * = play note 8 times
          ~ = vibrate note
          
          Intro synth noises for guitar :
          
          E|-19~-----19~-----7~----7~----19~-17~-15~-14~-|
          B|-----19~-----19~----7~----7~-----------------|
                             !
                             ^Vocals start here
          
          Clean guitar : 
          
             Bm  Bmsus2 Bm Bmsus2 Bm B9sus4 G    F
          E|-*2---*2---*2---*2---*2---*2---*2---*2-|
          B|-*3---*2---*3---*2---*3---*2---*2---*2-|
          G|-*4---*4---*4---*4---*4---*2---*0---*3-|
          D|-------------------------------*0---*4-|
          A|-------------------------------*2---*4-|
          E|-------------------------------*3---*2-|
                             
          Chorus : 
          
          B|---------------------------------------|
          G|---------------------------------------|
          D|-*5---*6---*5---*8---*5---*8---*5---*4-|
          A|-*5---*8---*5---*8---*5---*8---*5---*4-|
          E|-*3---*8---*3---*6---*3---*6---*3---*2-|
          
          End the song on an F chord.
          
          
          





We are damned and we are dead
all god's children to be sent
to our perfect place in the sun
and in the dirt

There's a windshield in my heart
we are bugs so smeared and scarred
and could you stop the meat from thinking
before I swallow all of it,
could you please?

Put me in the motorcade
put me in the death parade
dress me up and take me
dress me up and make me
your dying god

angels with needles
poked through our eyes
let the ugly light
of the world in
we were no longer blind
we were no longer blind

Put me in the motorcade
put me in the death parade
dress me up and take me
dress me up and make me
your dying god

Now we hold the "ugly head"
the Mary-whore is at the bed
They've cast the shadow of our perfect death
in the sun and in the dirt.









------------------

version 4








Intro & Verse (Keyboard)

E|-19~~~~~-------19~~~~-------7~~~~-----7~~~~-----19~~~-17~~~-15~~~-14~~~-|
B|--------19~~~~-------19~~~~------7~~~~-----7~~~~------------------------|
G|------------------------------------------------------------------------|
D|------------------------------------------------------------------------|
A|------------------------------------------------------------------------|
E|------------------------------------------------------------------------|
                  |
                   Vocals start here


Verse Part 2 (clean)

E|-22222222-22222222-22222222-22222222-22222222-22222222-22222222-22222222--|
B|-33333333-22222222-33333333-22222222-33333333-22222222-22222222-22222222--|
G|-44444444-44444444-44444444-44444444-44444444-22222222-00000000-33333333--|
D|-------------------------------------------------------00000000-44444444--|
A|-------------------------------------------------------22222222-44444444--|
E|-------------------------------------------------------33333333-22222222--|
                                        *START THE KEYBOARD HERE
In the backgorund    E|--7~~~~
  Keyboard           B|-------7~~~~9789789789789789789789789789789789789--|
                                   (the volumen here is lower to higher)


Chorus (Distortion) 

E|-------------------------------------------------------------------------|
B|-------------------------------------------------------------------------|
G|-------------------------------------------------------------------------|
D|-55555555-88888888-55555555-88888888-55555555-88888888-55555555-44444444-|
A|-55555555-88888888-55555555-88888888-55555555-88888888-55555555-44444444-|
E|-33333333-66666666-33333333-66666666-33333333-66666666-33333333-22222222-|

End 
whit the last chord of the Verse part 2 and a

E|----------|
B|--22^~~~--|Intro & Verse - x1
Verse Part 2 - x1 
Chorus x 1
Verse Part 2 x 1 (whitout the part of the keyboard)
chorus - x1
Verse Part 2 - x1
End








We are damned and we are dead
all god's children to be sent
to our perfect place in the sun
and in the dirt

There's a windshield in my heart
we are bugs so smeared and scarred
and could you stop the meat from thinking
before I swallow all of it,
could you please?

Put me in the motorcade
put me in the death parade
dress me up and take me
dress me up and make me
your dying god

angels with needles
poked through our eyes
let the ugly light
of the world in
we were no longer blind
we were no longer blind

Put me in the motorcade
put me in the death parade
dress me up and take me
dress me up and make me
your dying god

Now we hold the "ugly head"
the Mary-whore is at the bed
They've cast the shadow of our perfect death
in the sun and in the dirt.









------------------

version 5









[Chords used]
    Bm    F#    A     G        F5    G#5
E|--2-----2-----0-----3-----------------------|
B|--3-----2-----2-----3-----------------------|
G|--4-----3-----2-----0-----------------------|
D|--4-----4-----2-----0--------3-----6-----2--|
A|--2-----4-----0-----2--------3-----6-----2--|
E|--------2-----------3--------1-----4-----0--|

*In the original version they play Power Chords in the chorus. I found minor chords to sound pretty nice 
there as well if you're playing a softer, acoustic version of the song.

[Verse 1]
Bm                       F#
We are damned and we are dead
Bm                       F#
All god's children to be sent
Bm                          A        G
To our perfect place in the sun
           F#
And in the dirt

[Verse 2]
Bm                         F#
There's a windshield in my heart
Bm                         F#
We are bugs so smeared and scarred
Bm                               A
And could you stop the meat from thinking
                        G
Before I swallow all of it,
          F#
Could you please?

[Chorus]
F5                 G#5
Put me in the motorcade
F5                   G#5
Put me in the death parade
F5                  G#5
Dress me up and take me
F5                   E5
Dress me up and make me 

Your dying god

[Verse 3]
Bm
Angels with needles
F#
Poked through our eyes
Bm
Let the ugly light
       F# 
Of the world in
Bm                A
We were no longer blind
G                 F#
We were no longer blind

[Chorus]
F5                 G#5
Put me in the motorcade
F5                   G#5
Put me in the death parade
F5                  G#5
Dress me up and take me
F5                   E5
Dress me up and make me 

Your dying god

[Verse 4]
Bm                    F#
Now we hold the "ugly head"
Bm                       F#
The Mary-whore is at the bed
Bm                             A
They've cast the shadow of our perfect death
G                      F#
In the sun and in the dirt.











------------
Want More Free Lessons?

Browse through the Archive!

PROBLEM WITH THIS TAB? | VIEW FULL SCREEN | PRINT

Wolfgang's Vault - reissue"