Lessons/Tabs are sorted alphabetically.

Tab Vault

PROBLEM WITH THIS TAB?   VIEW FULL SCREEN   PRINT

The Ballad Of Frankensteins Monster

12 Step Rebels
Ballad Of Frankensteins Monster by 12 Step Rebels





                  Ballad Of Frankensteins Monster






Tuning: Standard

Verse
   Em     G      Am  G   Em
e|-0------3------0---3---0------------------------------------------------|
B|-0------0------1---0---0------------------------------------------------|
G|-0------0------2---0---0------------------------------------------------|
D|-2------0------2---0---2------------------------------------------------|
A|-2------2------0---2---2------------------------------------------------|
E|-0----2-3----------3---0------------------------------------------------|

Prechorus
   C      Em     D       Em
e|-0------0------2---3-2-0------------------------------------------------|
B|-1------0------3---3-3-0--------second time-----------------------------|
G|-0------0------2---2-2-0--------end with D------------------------------|
D|-2------2------0---0-0-2------------------------------------------------|
A|-3------2--------------2------------------------------------------------|
E|--------0--------------0------------------------------------------------|

Chorus
   Em     G      D         D   C      G      Em     Em
e|-0------3------2------3--2---0------3------0------0---------------------|
B|-0------0------3------3--3---1------0------0------0---------------------|
G|-0------0------2------2--2---0------0------0------0---------------------|
D|-2------0------0------0--0---2------0------2------2---------------------|
A|-2------2--------------------3------2------2------2---------------------|
E|-0----2-3---------------------------3------0------0---------------------|


Solo

e|------------------------------------------------------------------------|
B|------------------------------------------------------------------------|
G|------------------------------------------------------------------------|
D|-------------------------------------------2----------------------------|
A|----3-2-0-------3-2-5/7-------------------------------------------------|
E|-0--------2-3-----------3-5---7-8-7-5-3-0-------------------------------|

e|----8-7-5-------8-7-10/12-------7-8-7-5-3-0-----------------------------|
B|-5--------7-8-------------8-10------------0-----------------------------|
G|------------------------------------------0-----------------------------|
D|------------------------------------------2-----------------------------|
A|------------------------------------------2-----------------------------|
E|------------------------------------------0-----------------------------|

Song Order
Verse 2X
Prechorus 2X
Chorus 2X
Verse 2X
Prechorus 2X
Chorus 2X
Solo
Prechorus 2X
Chorus 4X



--------
Want More Free Lessons?

Browse through the Archive!

PROBLEM WITH THIS TAB? | VIEW FULL SCREEN | PRINT

ZLZ.COMTigerGPS