Lessons/Tabs are sorted alphabetically.

Tab Vault

PROBLEM WITH THIS TAB?   VIEW FULL SCREEN   PRINT

2000 Years

12 Step Rebels
2000 Years by 12 Step Rebels





                       2000 Years







Verse
   Am       C                           G        F
e|-0--------0-------|-------------------3--------1---------|
B|-1--------1-------|-------------------3--------1---------|
G|-2--------0-------|-End Verse With----0--------2---------|
D|-2--------2-------|-------------------0--------3---------|
A|----------3-------|-------------------2--------3---------|
E|------------------|-------------------3--------1---------|

Chorus

   A        G        C        F                 A       G       F       G
e|--------------------------------|----------------------------------------|
B|--------------------------------|----------------------------------------|
G|-2-----------------5------------|-4th Time----2--------------------------|
D|-2--------5--------5--------3---|-Play--------2-------5-------3-------5--|
A|-0--------5--------3--------3---|-------------0-------5-------3-------5--|
E|----------3-----------------1---|---------------------3-------1-------3--|
Hold out the F and G one measure longer


Song Order
Verse 1
Chorus
Verse 2
Chorus
Verse 3
Chorus
Outro (Same as Chorus just strum each chord 1 time)



--------
Want More Free Lessons?

Browse through the Archive!

PROBLEM WITH THIS TAB? | VIEW FULL SCREEN | PRINT

LifeLock.comAutomotix