Lessons/Tabs are sorted alphabetically.

Tab Vault

PROBLEM WITH THIS TAB?   VIEW FULL SCREEN   PRINT

Malaguena

Paco de Lucia
Malaguena by Paco de Lucia 




                           Malaguena 





INTRO
e-7--7--5--5--3--3-2---|2-2--x-2-2-|-5--5-3--3-2--2-0-|0-0--x-0-0-
B--0-----0-----0-------|0-0--x-0-0-|--0----0----0-----|0-0--x-0-0-
G---0-----0-----0------|2-2--x-2-2-|---0----0----0----|0-0--x-0-0-
D----------------------|1-1--x-1-1-|------------------|2-2--x-2-2-
A----------------------|2-2--x-2-2-|------------------|2-2--x-2-2-
E-0-----0-----0----0---|0-0--x-0-0-|-0----0----0----0-|0-0--x-0-0-


e-|-3--3-2--2-0--0---|2-2--x-2-2-
B-|--0----0----0---2-|0-0--x-0-0-
G-|---0----0----0----|2-2--x-2-2-
D-|------------------|2-2--x-2-2-
A-|------------------|2-2--x-2-2-
E-|-0----0----0----0-|0-0--x-0-0-


e-0--0-----------------|0-0--x-0-0-|---0--0--0--0--0--0--
B--0-----3--3-1--1-0---|0-0--x-0-0-|---------------------
G---0-----0----0-------|0-0--x-0-0-|---------------------
D----------0----0------|2-2--x-2-2-|---------------------
A----------------------|2-2--x-2-2-|-2--3--2--0----------
E-0-----0-----0----0---|0-0--x-0-0-|-------------3--2--0-

e-|2-2-2-2-x--2-
B-|0-0-0-0-x--0-
G-|2-2-2-2-x--2-
D-|1-1-1-1-x--1-
A-|2-2-2-2-x--2-
E-|0-0-0-0-x--0-

e|0-0-x--0-0--
B|0-0-x--0-0--
G|0-0-x--0-0--
D|2-2-x--2-2--
A|2-2-x--2-2--
E|0-0-x--0-0-- X2

JAAA Ahora si empiesa lo bueno

e-7-7-7-7-7--7--7-7-7-7-7-7-7-8-8-8-8-8-8-8-7s>10-12-10-
B-8--------10-8---7-------------9---9-------------------
G-9---------------9-------------10--10------------------
D-9---------------9-------------10--10------------------
A-------------------------------------------------------
E-------------------------------------------------------


e--10876-7-8-10-8-7--------8-7------------
B--------------------7-8-10---10-8-7------
G-------------------9---------------9-7---
D--------------------------------------10-
A-----------------------------------------
E-----------------------------------------


e-7-7-7-7-7--7--7-7-7-7-7-7-7-8-8-8-8-8-8-8-7s>10-12-13-12-
B-8--------10-8---7-------------9---9----------------------
G-9---------------9-------------10--10---------------------
D-9---------------9-------------10--10---------------------
A----------------------------------------------------------
E----------------------------------------------------------


e-1010-12-10-8-7-8-7--7-7...-----|
B--------------------------------|
G--------------------------------|
D--------------------------------|
A--------------------------------|
E--------------------------------|


e..8-7-5-8-7-5-8-7-5-8-7-5--77-5-5h7-3-2-3---0-3s>12-12-10-10-
B-------------------------------------------------------------
G-------------------------------------------------------------
D-------------------------------------------------------------
A-------------------------------------------------------------
E-------------------------------------------------------------

e1210-12-10-8-7-8-7-----7-8-7--8-7..|
B-------------------8-10-----10-----|
G-----------------------------------|
D-----------------------------------|
A-----------------------------------|
E-----------------------------------|

e7-7-8-7-5-8-7-5-8-7-5-8-7-5--77-5-5h7-3-2-3-7-----7--------------
B--------------------------------------------8-10-8-10-8-8h10p8-7-
G--------------------------------------------9--------------------
D--------------------------------------------9--------------------
A-----------------------------------------------------------------
E-----------------------------------------------------------------

e---5-5-5-5-------10----------------|
B---6------8-7-8-8--8--7-5-7--5h7-4-|
G---7-------------------------------|
D---7-------------------------------|
A-----------------------------------|
E-----------------------------------|

e--------------------------------------------7-7-5-5h7-3-2-3----|
B---------------------------------------------------------------|
G----4-5-4-5-4--4-4--5-4-2-5-4-2-5-4-2-5-4-2--------------------|
D-5-7-----7-----------------------------------------------------| ___
A---------------------------------------------------------------|--- |
E---------------------------------------------------------------|   ||

e-7-----7--------------5-5-5-5-------10----------------|            ||
B-8-10-8-10-8-8h10p8-7-6------8-7-8-8--8--7-5-7--5h7-4-|            ||
G-9--------------------7-------------------------------|            ||
D-9--------------------7-------------------------------|            ||
A------------------------------------------------------|
E------------------------------------------------------| repite arriba


e--3-3-7--3-3-7--3-3-7-5-3-5---2-2-5--2-2-5--2-2-5-3-2-3---|
B-5-5----5-5----5-5-----------3-3----3-3----3-3------------|
G----------------------------------------------------------|
D----------------------------------------------------------|
A----------------------------------------------------------|
E----------------------------------------------------------| x2

Este Piqueo se hace rapido

e-0-2-3-2--------------|---0---------0---------0-|---0--0--0--0--0--0-
B--------3-1-0---------|---0---------0---------0-|--------------------
G-------------2-0------|---1---------1---------1-|--------------------
D----------------4-2-1-|---2---------2---------2-|--------------------
A----------------------|2--2-3-5-3-2-2-3-5-3-2-2-|-2--3--2--0---------
E----------------------|---0---------0---------0-|-------------3--2--0


e|2-2-2-2--x--2-|0|
B|0-0-0-0--x--0-|0|
G|2-2-2-2--x--2-|0|
D|1-1-1-1--x--1-|2|
A|2-2-0-0--x--2-|2|
E|0-0-0-2--x--0-|0|


 





------------------

version 2








Key of:C
Tuning:E-A-D-G-B-e
                          repeat
e|-0-0-0-0-0-0-0-0-0-0-0-0--0---0-0-1-0----------------0-0-1-0-----------|
B|----0-----0---1-----------0---0---------3-1-0---0-1--0-------3-1-0--0-1|
G|--1-----1---2---2-2-0-----1---1---------------2------1-------------2---|
D|2-----2---------------3---2--------------------------------------------|
A|--------------------------2--------------------------------------------|
E|--------------------------0---0---------0------------0-------0---------|
                                                                   repeat
e|------------------------------------------------0-0-0-0-0-0-0-0-0---0-0-0-0|
B|3-3-3-3-1-0-------0-1-1-1-1-1--0---0-0-------------0-----0---1------------0|
G|------------2-1-2----------------2-----2-0-------1-----1---2---2-2-2-0----1|
D|-------------------------------------------3-2-2-----2-----------------3--2|
A|--------------------0-----------------------------------------------------2|
E|0-------------------------------------------------------------------------0|
                                                              repeat
e|0-0-1-3-0--------------------------------0--0-0-0-0-0-0-0-0-0-0-0-0--0-----|
B|0-------0-0-3-1-0--1-------0-1-0-3-1-0---0-----0-----0---1-----------0-----|
G|1-------1----------2-2-1-2-------------2-1---1-----1---2---2-2-0-----1-----|
D|-----------------------------------------2-2-----2---------------3---2-----|
A|-------------------0---------0-----------2---------------------------2-----|
E|0-------0--------------------------------0---------------------------0-----|










| /   slide up
| \   slide down
| h   hammer-on
| p   pull-off
| ~   vibrato
| +   harmonic
| x   Mute note
| b   Bend
| pb  Pre-bend
| br  Bend release
| pbr Pre-bend release
| brb Bend release bend









---------
Want More Free Lessons?

Browse through the Archive!

PROBLEM WITH THIS TAB? | VIEW FULL SCREEN | PRINT

Rebel CircusWolfgang's Vault - reissue