Lessons/Tabs are sorted alphabetically.

Tab Vault

PROBLEM WITH THIS TAB?   VIEW FULL SCREEN   PRINT

Like A Bird Without A Feather

R.L. Burnside
Like A Bird Without A Feather by R.L. Burnside




                     Like A Bird Without A Feather 









Standard Tuning or D-tuning, players choice...I chose standard for this tab


e|---------------------------------------------------------------------|
B|----------------2bp0------------------2bp0------------3-------3b-----|
G|--------------------------------------------------1-1-1-1---1-1-1----|
D|-------0------0--------------0------0-------------2-2-2-2---2-2-2----|
A|---0h2----0h2--------2---0h2----0h2--------2------2-2-2-2---2-2-2----|
E|---------------------0---------------------0-------------------------|

Just like a bird without a feather
e|---3b--0---0------------------------------------|
B|---------3---3-0--------------------------------|
G|-----------------3-2-0--------------------------|
D|-----------------------2-0----------------------|
A|---------------------------2/1-0----------------|
E|----------------------------------3b-3b-0-------|

You know I'm lost without your love
e|------------------------------------------------------------|
B|----------------2bp0------------------2bp0------------3-----|
G|--------------------------------------------------1-1-1-1---|
D|-------0------0--------------0------0-------------2-2-2-2---|
A|---0h2----0h2--------2---0h2----0h2--------2------2-2-2-2---|
E|---------------------0---------------------0----------------|

Just like a bird without a feather
e|---3------------------------------------------|
B|-----5-3-5------------------------------------|
G|-----------2b-0-------------------------------|
D|---------------------------2----------2-------|
A|----------------------0-h2-------0-h2---------|
E|----------------0---0----------0--------------|

You know I'm lost without your love
e|------------------------------------------------------------|
B|----------------2bp0------------------2bp0------------3-----|
G|--------------------------------------------------1-1-1-1---|
D|-------0------0--------------0------0-------------2-2-2-2---|
A|---0h2----0h2--------2---0h2----0h2--------2------2-2-2-2---|
E|---------------------0---------------------0----------------|

You know I need your lovin'
e|-------------------------------------------|
B|-------------------------------------------|
G|-------------------------------------------|
D|------------------------2----------2-------|
A|-------------------0-h2-------0-h2---------|
E|-------------0---0----------0--------------|

Just like the angels need heaven above
e|--3-3--3---------3-3--3--------------------|
B|---------5-3-5----------5-3----------------|
G|----------------------------2-0------------|
D|-------------------------------------------|
A|-------------------------------------------|
E|--------------------------------0----------|

e|------------------------------------------------------------|
B|----------------2bp0------------------2bp0------------3-----|
G|--------------------------------------------------1-1-1-1---|
D|-------0------0--------------0------0-------------2-2-2-2---|
A|---0h2----0h2--------2---0h2----0h2--------2------2-2-2-2---|
E|---------------------0---------------------0----------------|

Yeah I shot that woman
e|--3-3--3---------3-3--3--------------------|
B|---------5-3-5----------5-3----------------|
G|----------------------------2--------------|
D|-------------------------------------------|
A|-------------------------------------------|
E|-------------------------------------------|

Shot her cause she done me wrong
e|--3-3--3---------3-3--3--------------------|
B|---------5-3-5----------5-3----------------|
G|----------------------------2-0------------|
D|-------------------------------------------|
A|-------------------------------------------|
E|--------------------------------0----------|

e|------------------------------------------------------------|
B|----------------2bp0------------------2bp0------------3-----|
G|--------------------------------------------------1-1-1-1---|
D|-------0------0--------------0------0-------------2-2-2-2---|
A|---0h2----0h2--------2---0h2----0h2--------2------2-2-2-2---|
E|---------------------0---------------------0----------------|

Yeah I loved that woman
e|--3-3--3---------3-3h5p3-------------------|
B|---------5-3-5-----------5-----------------|
G|----------------------------2-0------------|
D|-------------------------------------------|
A|-------------------------------------------|
E|--------------------------------0----------|

Said she loved no one but me
e|------------------------------------------------------------|
B|----------------2bp0------------------2bp0------------3-----|
G|--------------------------------------------------1-1-1-1---|
D|-------0------0--------------0------0-------------2-2-2-2---|
A|---0h2----0h2--------2---0h2----0h2--------2------2-2-2-2---|
E|---------------------0---------------------0----------------|

But I caught that woman cheatin'
e|-------------------------------------------|
B|-------------------------------------------|
G|-------------------------------------------|
D|------------------------2----------2-------|
A|-------------------0-h2-------0-h2---------|
E|-------------0---0----------0--------------|

Now my home ain't where it used to be
e|--3---3---------------------------------------------------------|
B|----5---5-2b---------------2bp0------------------2bp0-----------|
G|--------------------------------------------------------------1-|
D|------------------0------0--------------0------0--------------2-|
A|--------------0h2----0h2--------2---0h2----0h2--------2-------2-|
E|--------------------------------0---------------------0---------|












----------------

version 2










e|-----------------------------------------------------------|
B|----------------2bp0------------------2bp0------------3----|
G|--------------------------------------------------1-1-1-1--|
D|-------0------0--------------0------0-------------2-2-2-2--|
A|---0h2----0h2--------2---0h2----0h2--------2------2-2-2-2--|
E|---------------------0---------------------0---------------|


Just like a bird without a feather

e|---3-0---0------------------------------------|
B|-------3--------------------------------------|
G|-----------2b-0-------------------------------|
D|---------------------------2----------2-------|
A|----------------------0-h2-------0-h2---------|
E|----------------0---0----------0--------------|


You know I'm lost without your love

e|-----------------------------------------------------------|
B|----------------2bp0------------------2bp0------------3----|
G|--------------------------------------------------1-1-1-1--|
D|-------0------0--------------0------0-------------2-2-2-2--|
A|---0h2----0h2--------2---0h2----0h2--------2------2-2-2-2--|
E|---------------------0---------------------0---------------|


Just like a bird without a feather

e|---3-0---0------------------------------------|
B|-------3--------------------------------------|
G|-----------2b-0-------------------------------|
D|---------------------------2----------2-------|
A|----------------------0-h2-------0-h2---------|
E|----------------0---0----------0--------------|


You know I'm lost without your love

e|-----------------------------------------------------------|
B|----------------2bp0------------------2bp0------------3----|
G|--------------------------------------------------1-1-1-1--|
D|-------0------0--------------0------0-------------2-2-2-2--|
A|---0h2----0h2--------2---0h2----0h2--------2------2-2-2-2--|
E|---------------------0---------------------0---------------|


You know I need your love

e|-------------------------------|
B|-------------------------------|
G|-------------------------------|
D|------------2----------2-------|
A|-------0-h2-------0-h2---------|
E|-0---0----------0--------------|


Just like the angels need Heaven above

e|---3-0---0-----------------------------------------------------------------|
B|-------3------------------------2bp0------------------2bp0------------3----|
G|-----------2b-0---------------------------------------------------1-1-1-1--|
D|-----------------------0------0--------------0------0-------------2-2-2-2--|
A|-------------------0h2----0h2--------2---0h2----0h2--------2------2-2-2-2--|
E|-------------------------------------0---------------------0---------------|


Well, you know, sure as I shot my baby

e|---3-0---0------------------------------------|
B|-------3--------------------------------------|
G|-----------2b-0-------------------------------|
D|---------------------------2----------2-------|
A|----------------------0-h2-------0-h2---------|
E|----------------0---0----------0--------------|


But I did it because she did me wrong

e|---3b--0---0------------------------------------|
B|---------3---3-0--------------------------------|
G|-----------------3-2-0--------------------------|
D|-----------------------2-0----------------------|
A|---------------------------2/1-0----------------|
E|----------------------------------3b-3b-0-------|

e|-----------------------------------------------------------|
B|----------------2bp0------------------2bp0------------3----|
G|--------------------------------------------------1-1-1-1--|
D|-------0------0--------------0------0-------------2-2-2-2--|
A|---0h2----0h2--------2---0h2----0h2--------2------2-2-2-2--|
E|---------------------0---------------------0---------------|


Well, you know, sure as I shot my baby


But I did it because she did me wrong

e|---3b--0---0------------------------------------|
B|---------3---3-0--------------------------------|
G|-----------------3-2-0--------------------------|
D|-----------------------2-0----------------------|
A|---------------------------2/1-0----------------|
E|----------------------------------3b-3b-0-------|

e|-----------------------------------------------------------|
B|----------------2bp0------------------2bp0------------3----|
G|--------------------------------------------------1-1-1-1--|
D|-------0------0--------------0------0-------------2-2-2-2--|
A|---0h2----0h2--------2---0h2----0h2--------2------2-2-2-2--|
E|---------------------0---------------------0---------------|

Yeah, you know the judge call it murder


Now the penitentiary is my home

e|---3b--0---0------------------------------------|
B|---------3---3-0--------------------------------|
G|-----------------3-2-0--------------------------|
D|-----------------------2-0----------------------|
A|---------------------------2/1-0----------------|
E|----------------------------------3b-3b-0-------|

e|-----------------------------------------------------------|
B|----------------2bp0------------------2bp0------------3----|
G|--------------------------------------------------1-1-1-1--|
D|-------0------0--------------0------0-------------2-2-2-2--|
A|---0h2----0h2--------2---0h2----0h2--------2------2-2-2-2--|
E|---------------------0---------------------0---------------|


Yeah, I loved that woman

Said she didn't love no one but me

e|---3b--0---0------------------------------------|
B|---------3---3-0--------------------------------|
G|-----------------3-2-0--------------------------|
D|-----------------------2-0----------------------|
A|---------------------------2/1-0----------------|
E|----------------------------------3b-3b-0-------|

e|-----------------------------------------------------------|
B|----------------2bp0------------------2bp0------------3----|
G|--------------------------------------------------1-1-1-1--|
D|-------0------0--------------0------0-------------2-2-2-2--|
A|---0h2----0h2--------2---0h2----0h2--------2------2-2-2-2--|
E|---------------------0---------------------0---------------|


Yeah, you know, I love that woman


She said she didn't love no one but me

e|-----------------------------------------------------------|
B|----------------2bp0------------------2bp0------------3----|
G|--------------------------------------------------1-1-1-1--|
D|-------0------0--------------0------0-------------2-2-2-2--|
A|---0h2----0h2--------2---0h2----0h2--------2------2-2-2-2--|
E|---------------------0---------------------0---------------|


Yeah, but I caught my baby cheatin'

Now my home ain't where it used to be   

e|---3b--0---0-------------|
B|---------3---3-0---------|
G|-----------------3-2-0---|
D|-------------------------|
A|-------------------------|
E|-------------------------|

e|---3b--0---0------------------------------------|
B|---------3---3-0--------------------------------|
G|-----------------3-2-0--------------------------|
D|-----------------------2-0--------------0-------|
A|---------------------------2/1-0----------------|
E|----------------------------------3b-3b---------|

e|------------------------|
B|----------------2bp0----|
G|------------------------|
D|-------0------0---------|
A|---0h2----0h2--------2--|
E|---------------------0--|








Just like a bird without a feather
You know I'm lost without your love
Just like a bird without a feather
You know I'm lost without your love
You know I need your love
Just like the angels need Heaven above

Well, you know, sure as I shot my baby
But I did it because she did me wrong
Well, you know, sure as I shot my baby
But I did it because she did me wrong
Yeah, you know the judge call it murder
Now the penitentiary is my home

Yeah, I loved that woman
Said she didn't love no one but me
Yeah, you know, I love that woman
She said she didn't love no one but me
Yeah, but I caught my baby cheatin'
Now my home ain't where it used to be   










------------
Want More Free Lessons?

Browse through the Archive!

PROBLEM WITH THIS TAB? | VIEW FULL SCREEN | PRINT

Cascio Interstate MusicThe Karaoke Channel Store - Med Rect