Lessons/Tabs are sorted alphabetically.

Tab Vault

PROBLEM WITH THIS TAB?   VIEW FULL SCREEN   PRINT

Intro And Nowhere To Run

Recon
Intro And Nowhere To Run by Recon





                      Intro And Nowhere To Run





- palm mute
* - pinch harmonic
~ - sustain note (let ring out)
/ - slide




Tuning: Drop C
GTR 1
|---------------------------------------------------------------------------------|
|---------------------------------------------------------------------------------|
|---------------------------------------------------------------------------------|
|---------------------------------------------------------------------------------|
|-3-1-0-4--3-1-3-0---------------0-----------------0---------------1-----0-----3*-|
|-3-1-0-4--3-1-3-0-000-0-000-000-0-0-000-0-000-000-0-000-0-000-000-1-000-0-000----|
  . . .    . . .   ... . ... ...   . ... . ... ...   ... . ... ...   ...   ...

|---------------------------------------------------------------|
|---------------------------------------------------------------|  GTR 2 the open C 
throughout
|---------------------------------------------------------------|
|----------------------------------------------------7~~~--3~~--|
|-0---------------0-----------------0----------------5~~~--1~~--|
|-0-000-0-000-000-0-0-000-0-000-000-0-000-0-000-000-------------|
    ... . ... ...   . ... . ... ...   ... . ... ...

           BURN THIS CITY!                  TO THE  GROUND!
|---------------------------------------------------------|
|---------------------------------------------------------|
|---------------------------------------------------------|  x2 both GTRs
|---------------------------------------------------7---3-|
|-0~~-000-----------------00000000-0~~-000----------5---1-|
|-0~~-000-----------------00000000-0~~-000----------------|
      ...                 ........ .   ...


           BURN THIS CITY!                    TO THE  GROUND!
|-----------------------------------------------------------|
|-----------------------------------------------------------|
|-----------------------------------------------------------|  x2 both GTRs (only GTR 2)
|-----------------------------------------------------7---3-|
|-0~~-000-----(000)---------00000000-0~~-000----------5---1-|
|-0~~-000-----(000)---------00000000-0~~-000----------------|
      ...      ...          ........ .   ...

        x2
|---------|-------------------|
|---------|-------------------|
|---------|-------------------|
|-0~~~~~--|--(pick slide)-----|
|-0~~~~~--|-x//////////////-0-|
|-0~~~~~--|-x//////////////-0-|

DRUM FILL

|---|------------------------------------|
|---|------------------------------------|
|---|------------------------------------|
|---|---------------8/7---5---5---5/8/7--| x3.5 both GTRs
|-0-|---------------6/5---3---3---3/6/5--|
|-0-|-(0-0-000-000)-----0---0---0--------|  (only GTR 1)
       . . ... ...      .   .   .

|--------------|
|--------------|
|--------------| both GTRs
|--------------|
|-6-5-3-5-3-1--|
|-6-5-3-5-3-1--|
  . . . . . .


both GTRs: (whole thing x2)
|---|-----------------------------------|
|---|-----------------------------------|
|---|-----------------------------------|
|---|--------------8/7---5---5---5/8/7--| x3.5
|-0-|--------------6/5---3---3---3/6/5--|
|-0-|--0-0-000-000-----0---0---0--------|
       . . ... ...     .   .   .

|--------------|
|--------------|
|--------------|
|--------------|
|-6-5-3-5-3-1--|
|-6-5-3-5-3-1--|
  . . . . . .

Both GTRs x2
|----------------------------------------------------------------|
|----------------------------------------------------------------|
|----------------------------------------------------------------|
|---------------------------------------------------------5------|
|-0--0---------------------5-8-7-8--8---------------8-7-5---8-7--|
|-0--0-0-0-0-0-0-0-0-0-0-0-------8--8-8-8-8-8-8-8-8--------------|
       . . . . . . . . . .            . . . . . . .

|------------------------------------------------------------------|
|------------------------------------------------------------------|
|------------------------------------------------------------------|
|------------------------------------------------------------------|
|-0--0---------------------5-8-7-8--8---------------8-7----8-7-----|
|-0--0-0-0-0-0-0-0-0-0-0-0-------8--8-8-8-8-8-8-8-8-----10-----10--|
       . . . . . . . . . .            . . . . . . .

|------|
|------|
|------|
|-0~~~-|
|-0~~~-|
|-0~~~-|

  NO   WHERE TO RUN!
|-------------------|
|-------------------|
|-------------------| both GTRs x4
|-------------------|
|-0~~--0-0---0-0~~--|
|-0~~--0-0---0-0~~--|
  .    . .   . .

  NO   WAY   OUT!
|-------------------|
|-------------------|
|-------------------| GTR 1 x4
|-------------------|
|-0~~--0-0---0-0~~--|
|-0~~--0-0---0-0~~--|
  .    . .   . .

|---------------------------------|
|---------------------------------|
|---------------------------------|
|---------------------------------| GTR 2 x4
|---------------------------------|
|-0-0-0-0-0-0-0-0-0-0-0-0-0-0-0-0-|
  . . . . . . . . . . . . . . . .

             x3
|--------------|------------|
|--------------|------------|
|--------------|------------|
|--------------|------------| both GTRs x2
|-1-0~---------|-4-3~--3-1~-|
|-1-0~-0-0-0-0-|-4-3~--3-1~-|
       . . . .
                                    x1.5
|---------------------------------------|-----------------|
|---------------------------------------|-----------------|
|---------------------------------------|-----------------|
|---------------------------------------|-----------------| both GTRs x4
|-1----0--------0----1----0--------0----|-4-3-----3-1-----|
|-1-00-0-000000-0-00-1-00-0-00-0-0-0-00-|-4-3-3-3-3-1-1-1-|
    ..   ......   ..   ..   .. . .   ..       . .     . .

GTR 1
|-------------------------------------------------------------------|
|-------------------------------------------------------------------|
|-------------------------------------------------------------------|
|-------------------------------------------------------------------|
|-0-0-0-0-0-0-0-0-0-0-0-0-0-0-0-0-3-3-3-3-3-3-3-3-5-5-5-5-5-5-5-5---|
|-0-0-0-0-0-0-0-0-0-0-0-0-0-0-0-0-3-3-3-3-3-3-3-3-5-5-5-5-5-5-5-5---|
      . . . . . . . . . . . . . .     . . . . . .     . . . . . .

|-------------------------------------------------------------------|
|-------------------------------------------------------------------|
|-------------------------------------------------------------------|
|-------------------------------------------------------------------|  whole part x2
|-0-0-0-0-0-0-0-0-0-0-0-0-0-0-0-0-8-8-8-8-8-8-8-8-7-7-7-7-7-7-7-7---|
|-0-0-0-0-0-0-0-0-0-0-0-0-0-0-0-0-8-8-8-8-8-8-8-8-7-7-7-7-7-7-7-7---|
      . . . . . . . . . . . . . .     . . . . . .     . . . . . .

GTR 2 (listen to song fro strumming pattern)
|------------------------------------------------------------------|
|------------------------------------------------------------------|
|-7--7-7-7-7-7-7-7-7-7-7-7-7-7-7/10--10-10-10-10/5--5-5-5-5-5-5-5--|
|-x--x-x-x-x-x-x-x-x-x-x-x-x-x-x--x---x--x--x--x-x--x-x-x-x-x-x-x--|
|-5--5-5-5-5-5-5-5-5-5-5-5-5-5-5--8---8--8--8--8/3--3-3-3-3-3-3-3--|
|------------------------------------------------------------------|

|---------------------------------------------------------------------------|
|---------------------------------------------------------------------------|
|-7--7-7-7-7-7-7-7-7-7-7-7-7-7-7/10--10-10-10-10/12--12-12-12-12-12-12-12---|
|-x--x-x-x-x-x-x-x-x-x-x-x-x-x-x--x---x--x--x--x-x----x--x--x--x--x--x--x---|
|-5--5-5-5-5-5-5-5-5-5-5-5-5-5-5--8---8--8--8--8/10--10-10-10-10-10-10-10---| whole part x1.5
|---------------------------------------------------------------------------|

GTR ends on:
|-----------------------------------------------------------------------------------|
|-----------------------------------------------------------------------------------|
|-7--7-7-7-7-7-7-7-7-7-7-7-7-7-7/15--15-15-15-15-15-15-15/14-14-14-14-14-14-14-14---|
|-x--x-x-x-x-x-x-x-x-x-x-x-x-x-x--x---x--x--x--x--x--x--x--x--x--x--x--x--x--x--x---|
|-5--5-5-5-5-5-5-5-5-5-5-5-5-5-5-13--13-13-13-13-13-13-13/12-12-12-12-12-12-12-12---|
|-----------------------------------------------------------------------------------|

both GTRs
|-------|
|-------|
|-------|
|-0~~~--|
|-0~~~--|
|-0~~~--|

both GTRs x3.5
|-------------------------------|
|-------------------------------|
|-------------------------------| on 2nd time GTR2 plays pinch harmonic
|-------------------------------|      and 1st C chord is not pm'ed
|-0--4--3--1--0--1--3-1-3--4----|
|-0--4--3--1--0--1--3-1-3-(4*)--|
  .  .  .  .  .  .  . . .  .

|------------------|
|------------------|
|------------------|
|------------------|
|-4----1---0~~~~~--|
|-4----1---0~~~~~--|











--------
Want More Free Lessons?

Browse through the Archive!

PROBLEM WITH THIS TAB? | VIEW FULL SCREEN | PRINT

TigerGPSMulligan Mint