Lessons/Tabs are sorted alphabetically.

Tab Vault

PROBLEM WITH THIS TAB?   VIEW FULL SCREEN   PRINT

A L'envers A Lendroit

Noir Desir
A L'envers A Lendroit by Noir Desir





                 A L'envers A Lendroit







Intro: Fm Ab Bb / Plus facile en Capo 1

Fm                                       Ab           Bb
On est pas encore revenu du pays des mystères
Il y a qu'on est entré là sans avoir vu de la lumière
Il y a là l'eau le feu le computer Vivendi et la terre
On doit pouvoir s'épanouir à tout envoyer enfin en l'air

On peut toujours saluer les petits rois de pacotille
On peut toujours espérer entrer un jour dans la famille
Sûr que tu pourras devenir un crackboursier à toi tout seul
On pourrait même envisager que tout nous explose à la gueule

C#               Cm            Bb            Ab
Autour des oliviers palpitent les origines
Cm        Bb         Ab               Gm
infiniment se voir rouler dans la farine
Fm         Db   Cm     Fm        Ab   Bb
A l'envers à l'endroit à l'envers à l'endroit
Fm         Db   Cm     Fm        Ab   Bb
A l'endroit  à l'envers à l'envers à l'endroit

Y'a t'il un incendie prévu ce soir dans l'hémicycle
On dirait qu'il est temps pour nous d'envisager un autre cycle
On peut caresser des idéaux sans s'éloigner d'en bas
On peut toujours rêver de s'en aller mais sans bouger de là

Il paraît que la blanche colombe à trois cents tonnes de plombs dans l'aile
Il parît qu'il faut s'habituer à des printemps sans hirondelles
La belle au bois dormant a rompu les négociations
Unilatéralement le prince entame des protestations
Doit-on se courber encore et toujours pour une ligne droite?
Prière pour trouver les grands espaces entre les parois d'une boîte
Serait-ce un estuaire ou le bout du chemin au loin qu'on entrevoit
Spéciale dédicace à la flaque où on nage où on se noie

Autour des amandiers fleurissent les mondes en sourdine
No pasaran sous les fourches caudines

A l'envers à l'endroit à l'envers à l'endroit
A l'endroit  à l'envers à l'envers à l'endroit

_______________________________________________________________________

TAB

Voici le riff principal, joué par sergio tout le long
e--------------------------------------|
---------------------------------------|
------5-------5---------5--------7-----|
----------6-8------6-6---6-6-8---------|
--8-8--8-------------------------------|
E|-------------------------------------|


Apres y a une variante a un moment ou il joue cette arpege (environ ;)

e---------|
------6---|
----5-----|
--6-------|
----------|
E|--------|

Il  est joué hyper vite au milieu de la chanson, et juste deux fois..

et a la fin les petites notes, avec reprise du deuxieme morceau du riff pour rester synchro !


e-----------------------------|
---6---6----------------------|
-5---8---8-5-----5-----7------|
----------------6---6-8-------|
------------------------------|
E|----------------------------|


et tout a la fin, petite variante

e------------------------------------|
-----6---6---------------------------|
---5---8---8-6-5------5------7-------|
---------------------6----6-8--------|
-------------------------------------|
E|-----------------------------------|


----------------------------------------------------------------|
----------------------------------------------------------------|
-----------------------------------7-----9----------------------|
---5-5 -3--5----------------------8-----10----------------------|
---5-5 -3--5----------------------8-----10----------------------|
---3 3--3- 3----------------------6-----8-----------------------|
Gm                                            A#m     Cm
On est pas encore revenu du pays des mystères
Il y a qu'on est entré là sans avoir vu de la lumière
Il y a là l'eau le feu le computer Vivendi et la terre
On doit pouvoir s'épanouir à tout envoyer enfin en l'air











---------------

version 2








A Lenvers A Lendroit Tab 
by Noir Desir




 512 views 1 this week 





no commentswrite comment




1 2 3 4 5 

please rate








add to favorites launch autoscroll 
 
font size













 view tab on iPhone 
 view tab on Android 
 listen to this song 


UG plus: remove banner
  
  

  





Tab Player







Play






Tempo




Fretboard





 



















Contributor



aubin49 

Struggling with your bass playing? You need to check out JamPlay's year end sale!  






"A l'envers, a l'endroit" Noir Desir
( source : Live Evry 2002 , joué 1 ton au dessus)


Fm 133111
Ab 466544
Bb 677566
C# x46664 ou 9.11.11.10.9.9
Cm x35543 ou 8.10.10.8.8.8


°°°Guitare Rythmique°°°

-Couplets : Fm/Ab/Bb Fm/Ab/Bb
-Pré-refrains : C#/Cm
-Refrains : Fm/C#/Cm Fm/Ab/Bb
-Pont et Final : Fm/C#/Cm Fm/Ab/Bb (le rythme change)


°°°Guitare Lead°°°

intro : 2 fois
e-----------------------------------------------------------|
B-----------------------------------------------------------|
G------5--------(5)--------5------7-------------------------|
D-----------6h8--6-------------6/8--(8)---------------------|
A---8-8---8-------------6-6---6-----------------------------|
E-----------------------------------------------------------|


e-----------------------------------------------------------|
B-----------------------------------------------------------|
G------5---------7---------5--------------------------------|
D-----------6h8--8-----------6---6--------------------------|
A---8-8---8-------------6-6----5----------------------------|
E-----------------------------------------------------------|


Couplet 1 :

On est pas encore revenu du pays des mystères
e-----------------------------------------------------------|
B-----------------------------------------------------------|
G------5---------5---------5------7-------------------------|
D-----------6h8----------------6/8--(8)---------------------|
A---8-8---8-------------6-6---6-----------------------------|
E-----------------------------------------------------------|


Il y a qu'on est entré là sans avoir vu de la lumière
e-----------------------------------------------------------|
B-----------------------------------------------------------|
G------5---------7---------5--------------------------------|
D-----------6h8--8-----------6---6--------------------------|
A---8-8---8-------------6-6----5----------------------------|
E-----------------------------------------------------------|


Il y a là l'eau le feu le computer Vivendi et la terre
e-----------------------------------------------------------|
B-----------------------------------------------------------|
G------5---------5---------5------7-------------------------|
D-----------6h8----------------6/8--(8)---------------------|
A---8-8---8-------------6-6---6-----------------------------|
E-----------------------------------------------------------|


On doit pouvoir s'épanouir à tout envoyer enfin en l'air
e-----------------------------------------------------------|
B-----------------------------------------------------------|
G------5---------7---------5--------------------------------|
D-----------6h8--8-----------6---6--------------------------|
A---8-8---8-------------6-6----5----------------------------|
E-----------------------------------------------------------|


e-----------------------------------------------------------|
B-----------------------------------------------------------|
G------5---------5---------5------7-------------------------|
D-----------6h8----------------6/8--(8)---------------------|
A---8-8---8-------------6-6---6-----------------------------|
E-----------------------------------------------------------|


e-----------------------------------------------------------|
B-----------------------------------------------------------|
G------5---------7---------5--------------------------------|
D-----------6h8--8-----------6---6--------------------------|
A---8-8---8-------------6-6----5----------------------------|
E-----------------------------------------------------------|


Couplet 2 :


On peut toujours saluer les petits rois de pacotille
e-----------------------------------------------------------|
B-----------------------------------------------------------|
G------5---------5---------5------7-------------------------|
D-----------6h8----------------6/8--(8)---------------------|
A---8-8---8-------------6-6---6-----------------------------|
E-----------------------------------------------------------|


On peut toujours espérer entrer un jour dans la famille
e-----------------------------------------------------------|
B-----------------------------------------------------------|
G------5---------7---------5--------------------------------|
D-----------6h8--8-----------6---6--------------------------|
A---8-8---8-------------6-6----5----------------------------|
E-----------------------------------------------------------|


Sûr que tu pourras devenir un crackboursier à toi tout seul
e-----------------------------------------------------------|
B-----------------------------------------------------------|
G------5---------5---------5------7-------------------------|
D-----------6h8----------------6/8--(8)---------------------|
A---8-8---8-------------6-6---6-----------------------------|
E-----------------------------------------------------------|


On pourrait même envisager que tout nous explose à la gueule
e-----------------------------------------------------------|
B-----------------------------------------------------------|
G------5---------7---------5--------------------------------|
D-----------6h8--8-----------6---6--------------------------|
A---8-8---8-------------6-6----5----------------------------|
E-----------------------------------------------------------|




Pré-refrain 1 :

Autour des oliviers palpitent les origines
e---------------------------------------------------------|
B------------6-----6--------------------------------------|
G-------6-------6----6-6----------------------------------|
D--/6-6---6---6---6---6-----------------------------------|
A---------------------------------------------------------|
E---------------------------------------------------------|

infiniment se voir rouler dans la farine
e---------------------------------------------------------|
B---------------------------------------------------------|
G---------8-----8-----------------------------------------|
D---------------------------------------------------------|
A--/10-10----10-----10/(0)--------------------------------|
E---------------------------------------------------------|



refrain 1 :

A l'envers à l'endroit à l'envers à l'endroit
e-----------------------------------------------------------|
B----------6------6----4------------------------------------|
G------5----------------------5------5-----5------7---------|
D-------------6-6----5------------6h8----------6/8----------|
A-8-8----8----------------8-8---8-------6-6--6--------------|
E-----------------------------------------------------------|

A l'endroit à l'envers à l'envers à l'endroit
e-----------------------------------------------------------|
B----------6------6----4------------------------------------|
G------5----------------------5------5-----5----------------|
D-------------6-6----5------------6h8-------6---6-----------|
A-8-8----8----------------8-8---8-------6-6---5-------------|
E-----------------------------------------------------------|


PONT 1 :

e-----------------------------------------------------------|
B-----------------------------------------------------------|
G----5/(10)--10---8---10----8-/(5)---5------5----5-----7----|
D----------------10-------10-------------6h8--------6/8-----|
A-8(8)/(11)-11---10--10-10---------8---8------6-6--6--------|
E-----------------------------------------------------------|
gratter la 8, laisser sonner , gratter la 5 et declencher
le slide sur les 2 cordes pour arriver
 sur 10 et 8 en meme temps

e-----------------------------------------------------------|
B----------------------8------------------------------------|
G----5/(10)---10--8---------8-/(5)---5------5----5----------|
D----------------10-------10-------------6h8------6--6------|
A-8(8)/(11)-11---10--10-10---------8---8------6-6--5--------|
E-----------------------------------------------------------|



couplet 3 :


Y'a t'il un incendie prévu ce soir dans l'hémicycle
e-----------------------------------------------------------|
B-----------------------------------------------------------|
G------5---------5---------5------7-------------------------|
D-----------6h8----------------6/8--(8)---------------------|
A---8-8---8-------------6-6---6-----------------------------|
E-----------------------------------------------------------|


On dirait qu'il est temps pour nous d'envisager un autre
cycle
e-----------------------------------------------------------|
B-----------------------------------------------------------|
G------5---------7---------5--------------------------------|
D-----------6h8--8-----------6---6--------------------------|
A---8-8---8-------------6-6----5----------------------------|
E-----------------------------------------------------------|


On peut caresser des idéaux sans s'éloigner d'en bas
e-----------------------------------------------------------|
B-----------------------------------------------------------|
G------5---------5---------5------7-------------------------|
D-----------6h8----------------6/8--(8)---------------------|
A---8-8---8-------------6-6---6-----------------------------|
E-----------------------------------------------------------|


On peut toujours rêver de s'en aller mais sans bouger de là
e-----------------------------------------------------------|
B-----------------------------------------------------------|
G------5---------7---------5--------------------------------|
D-----------6h8--8-----------6---6--------------------------|
A---8-8---8-------------6-6----5----------------------------|
E-----------------------------------------------------------|


Breack 1 :


e------1------1---------------------------------------------|
B-----1-1----1-1------4-------------------------------------|
G----1---1--1---1-----5--------7----------------------------|
D--3-------3--------6---6------8----------------------------|
A-----------------------------------------------------------|
E-----------------4-------(4)/6-----------------------------|

e------1------1---------------------------------------------|
B-----1-1----1-1------4-------------------------------------|
G----1---1--1---1-----5--------7----------------------------|
D--3-------3--------6---6------8----------------------------|
A-----------------------------------------------------------|
E-----------------4-------(4)/6-----------------------------|



Couplet 4 :


Il paraît que la blanche colombe à trois cents tonnes de
plombs dans l'aile
e-----------------------------------------------------------|
B-----------------------------------------------------------|
G------5---------5---------5------7-------------------------|
D-----------6h8----------------6/8--(8)---------------------|
A---8-8---8-------------6-6---6-----------------------------|
E-----------------------------------------------------------|


Il parît qu'il faut s'habituer à des printemps sans
hirondelles
e-----------------------------------------------------------|
B-----------------------------------------------------------|
G------5---------7---------5--------------------------------|
D-----------6h8--8-----------6---6--------------------------|
A---8-8---8-------------6-6----5----------------------------|
E-----------------------------------------------------------|


La belle au bois dormant a rompu les négociations
e-----------------------------------------------------------|
B-----------------------------------------------------------|
G------5---------5---------5------7-------------------------|
D-----------6h8----------------6/8--(8)---------------------|
A---8-8---8-------------6-6---6-----------------------------|
E-----------------------------------------------------------|


Unilatéralement le prince entame des protestations
e-----------------------------------------------------------|
B-----------------------------------------------------------|
G------5---------7---------5--------------------------------|
D-----------6h8--8-----------6---6--------------------------|
A---8-8---8-------------6-6----5----------------------------|
E-----------------------------------------------------------|


Breack 2 : 2 temps (sans guitare)



Couplet 5 :


Doit-on se courber encore et toujours pour une ligne droite?
e-----------------------------------------------------------|
B-----------------------------------------------------------|
G------5---------5---------5------7-------------------------|
D-----------6h8----------------6/8--(8)---------------------|
A---8-8---8-------------6-6---6-----------------------------|
E-----------------------------------------------------------|


Prière pour trouver les grands espaces entre les parois
d'une boîte
e-----------------------------------------------------------|
B-----------------------------------------------------------|
G------5---------7---------5--------------------------------|
D-----------6h8--8-----------6---6--------------------------|
A---8-8---8-------------6-6----5----------------------------|
E-----------------------------------------------------------|


Serait-ce un estuaire ou le bout du chemin au loin qu'on
entrevoit
e-----------------------------------------------------------|
B-----------------------------------------------------------|
G------5---------5---------5------7-------------------------|
D-----------6h8----------------6/8--(8)---------------------|
A---8-8---8-------------6-6---6-----------------------------|
E-----------------------------------------------------------|


Spéciale dédicace à la flaque où on nage où on se noie
e-----------------------------------------------------------|
B-----------------------------------------------------------|
G------5---------7---------5--------------------------------|
D-----------6h8--8-----------6---6--------------------------|
A---8-8---8-------------6-6----5----------------------------|
E-----------------------------------------------------------|




Pré-refrain 2 :

Autour des amandiers fleurissent les mondes en sourdine
e---------------------------------------------------------|
B------------6-----6--------------------------------------|
G-------6-------6----6-6----------------------------------|
D--/6-6---6---6---6---6-----------------------------------|
A---------------------------------------------------------|
E---------------------------------------------------------|

No pasaran sous les fourches caudines
e---------------------------------------------------------|
B---------------------------------------------------------|
G----8/---------------------------------------------------|
D----8/---------------------------------------------------|
A---10/---------------------------------------------------|
E---------------------------------------------------------|



refrain 2 :

A l'envers à l'endroit à l'envers à l'endroit
e-----------------------------------------------------------|
B----------6------6----4------------------------------------|
G------5----------------------5------5-----5------7---------|
D-------------6-6----5------------6h8----------6/8----------|
A-8-8----8----------------8-8---8-------6-6--6--------------|
E-----------------------------------------------------------|

A l'endroit à l'envers à l'envers à l'endroit
e-----------------------------------------------------------|
B----------6------6----4------------------------------------|
G------5----------------------5------5-----5----------------|
D-------------6-6----5------------6h8-------6---6-----------|
A-8-8----8----------------8-8---8-------6-6---5-------------|
E-----------------------------------------------------------|


Final :


e-----------------------------------------------------------|
B----------------------8------------------------------------|
G----5/(10)---10--8---------8-/(5)---5------5----5-----7----|
D----------------10-------10-------------6h8--------6/8-----|
A-8(8)/(11)-11---10--10-10---------8---8------6-6--6--------|
E-----------------------------------------------------------|


e-----------------------------------------------------------|
B-----------------------------------------------------------|
G----5/(10)--10---8---10----8-/(5)---5------5----5-----7----|
D----------------10-------10-------------6h8--------6/8-----|
A-8(8)/(11)-11---10--10-10---------8---8------6-6--6--------|
E-----------------------------------------------------------|


e-----------------------------------------------------------|
B-----------------------------------------------------------|
G----5/(10)--10---8----8----8-/(5)---5------5----5-----7----|
D----------------10-------10-------------6h8--------6/8-----|
A-8(8)/(11)-11---10--10-10---------8---8------6-6--6--------|
E-----------------------------------------------------------|


e---------------------------------------------------------1-|
B----------------------8----------------------------------1-|
G----5/(10)---10--8---------8-/(5)---5------5----5-----7--1-|
D----------------10-------10-------------6h8--------6/8---3-|
A-8(8)/(11)-11---10--10-10---------8---8------6-6--6------3-|
E---------------------------------------------------------1-|









----------
Want More Free Lessons?

Browse through the Archive!

PROBLEM WITH THIS TAB? | VIEW FULL SCREEN | PRINT

Knoxville, Start Saving up to 70% at Half Off Depot. Start Saving Now!Buy Now