Lessons/Tabs are sorted alphabetically.

Tab Vault

PROBLEM WITH THIS TAB?   VIEW FULL SCREEN   PRINT

La Rosa De Los Vientos

Mago De Oz
La Rosa De Los Vientos by Mago De Oz



 


                         La Rosa De Los Vientos 








          
                              Simbologia
v - vibrato (vibrar)
b - bend (corvar)
r - pre-bend (devolver a su lugar)
s - slide (deslizar)
h - hammer (martillo)
p - pull off (tiron)

Intro:
e|------------------------------------------------------------------------------------------|
B|-16b17-14--14-12------------16b17-14--14-16-17-17b19r17-16----16b17-14--14-12-------------|
G|-----------------14-13-11-----------------------------------------------------14-13-11----|
D|------------------------------------------------------------------------------------------|
A|------------------------------------------------------------------------------------------|
E|------------------------------------------------------------------------------------------| 

e|-12-14-16-14---------12-14-14p16-14-12-----------------12-14-14p16-14-12---12------|
B|-------------16-12---------------------16-14-12-12s14--------------------16--16-17-|
G|-----------------------------------------------------------------------------------|
D|-----------------------------------------------------------------------------------|
A|-----------------------------------------------------------------------------------|
E|-----------------------------------------------------------------------------------|

e|--------------------------------------------------------------------------------------|
B|-14-12---14-17-16-14-12-12s14-14s10----14-12---14-17-16-14-12--14-14-14-14-14-12-14---|
G|------14------------------------------------14----------------------------------------|
D|--------------------------------------------------------------------------------------|
A|--------------------------------------------------------------------------------------|
E|--------------------------------------------------------------------------------------|

...luego va la flauta pero es lo mismo ↑... si quieren pueden repetirlo...


Verso:
e|----------------------------------------------------------------------------|
B|----------------------------------------------------------------------------|
G|----------------------------------------------------------------------------|
D|-8-9-9999999999s44444--4-6--66666--------------------------9-9-9------------|
A|-6-7-7777777777s22222--2-4--44444---66666--6-7-77777s9999--7-7-7--9-9-------|
E|------------------------------------44444--4-5-55555s7777---------7-7-------| 
pm      ................      ......  ......      ............  
                                          /
                                         /  
...luego se repite hasta aqui...        /               ...y luego va esto...
¡
e|-------------------|-------------------------------------16h17p19-|
B|-------------------|-----------------------------16h17p19---------|
G|-------------------|---------------------14h16p18-----------------|
D|-------------5-7---|-------------14h16p18-------------------------|(muy rapido)
A|--------5-7-9---7--|-----14h16p18---------------------------------|
E|-4-5-7-9-----------|----------------------------------------------|
Verso:
e|----------------------------------------------------------------------------|
B|----------------------------------------------------------------------------|
G|----------------------------------------------------------------------------|
D|-8-9-9999999999s44444--4-6--66666--------------------------9-9-9------------|
A|-6-7-7777777777s22222--2-4--44444---66666--6-7-77777s9999--7-7-7--9-9-------|
E|------------------------------------44444--4-5-55555s7777---------7-7-------| 
pm      ................      ......  ......      ............  

e|-----------------------------------------------------------------|
B|-----------------------------------------------------------------|
G|-----------------------------------------------------------------|
D|-8-9-9999999999s44444--4-6--66666--------------------------9-----|
A|-6-7-7777777777s22222--2-4--44444---66666--6-7-77777s9999--7-9-7-|
E|------------------------------------44444--4-5-55555s7777----7-5-| 
pm      ................      ......  ......      ............  

...Esto va junto con la voz en el pre-coro...

-y q mi luz te acompañe...
e|---------16--16----------------16-19b21-19-19-19s21----|
B|-14-16-17-16-14v-12---14-16-17-------------------------|
G|-------------------------------------------------------|
D|-------------------------------------------------------|
A|-------------------------------------------------------|
E|-------------------------------------------------------| 

...esto va junto a la voz en el coro...
e|-21-19-16-21-19-16--------------------------------------------------------|
B|------------------21-19-17-21-19-17---------------------------------------|
G|-----------------------------------20-18-16-20-18-16--18-16-14-18-16-14---|
D|--------------------------------------------------------------------------|
A|--------------------------------------------------------------------------|
E|--------------------------------------------------------------------------| 
                                                     
...entre la vuelta 1 y 2 va lo de... y q mi luz te acompañe...   x2 

...esta es la continuación...
e|---------------------------------------------------------------------------------|
B|---------------------------------------------------------------------------------|
G|-16-14-13-16-14-13---------------------------------------------------------------|
D|------------------19-18-16-19-18-16--18-16-14-18-16-14--16-14-13-16-14-13-14-----|
A|---------------------------------------------------------------------------------|
E|---------------------------------------------------------------------------------| 
        
Verso: primera parte
e|-----------------------------------------|
B|-----------------------------------------|
G|-----------------------------------------|
D|-8-9s4-4s6-6---------9-9-9---------------|
A|-6-7s2-2s4-4--6-7-9--7-7-7-9-9-----------|
E|--------------7-5-7--------7-7-----------| 
                   /
                  /           
...luego se repie hasta aqui...                        

e|-------------------|
B|-------------------|
G|-------------------|
D|-------------5-7---|
A|--------5-7-9---7--|
E|-4-5-7-9-----------|
Verso: segunda perte

e|----------------------------------------------------------------------------|
B|----------------------------------------------------------------------------|
G|----------------------------------------------------------------------------|
D|-8-9-9999999999s44444--4-6--66666--------------------------9----------------|
A|-6-7-7777777777s22222--2-4--44444---66666--6-7-77777s9999--7-9-7------------|
E|------------------------------------44444--4-5-55555s7777----7-5------------| 
pm      ................      ......  ......      ............  

...Esto va junto con la voz en el pre-coro...

-y q mi luz te acompañe...

e|---------16--16----------------16-19b21-19-19-19s21----|
B|-14-16-17--16-14v-12---14-16-17------------------------|
G|-------------------------------------------------------|
D|-------------------------------------------------------|
A|-------------------------------------------------------|
E|-------------------------------------------------------| 

...esto va junto a la voz en el coro... (x2)
e|-21-19-16-21-19-16--------------------------------------------------------|
B|------------------21-19-17-21-19-17---------------------------------------|
G|-----------------------------------20-18-16-20-18-16--18-16-14-18-16-14---|
D|--------------------------------------------------------------------------|
A|--------------------------------------------------------------------------|
E|--------------------------------------------------------------------------| 
                                                     
...entre la vuelta 1 y 2 va lo de -y q mi luz te acompañe...      

...esta es la continuación...  (x2)
e|---------------------------------------------------------------------------------|
B|---------------------------------------------------------------------------------|
G|-16-14-13-16-14-13---------------------------------------------------------------|
D|------------------19-18-16-19-18-16--18-16-14-18-16-14--16-14-13-16-14-13-14-----|
A|---------------------------------------------------------------------------------|
E|---------------------------------------------------------------------------------|

...Se repite el intro...

e|------------------------------------------------------------------------------------------|
B|-16b17-14--14-12------------16b17-14--14-16-17-17b19r17-16----16b17-14--14-12-------------|
G|-----------------14-13-11-----------------------------------------------------14-13-11----|
D|------------------------------------------------------------------------------------------|
A|------------------------------------------------------------------------------------------|
E|------------------------------------------------------------------------------------------| 

e|-12-14-16-14-------|
B|-------------16-12-|
G|-------------------|
D|-------------------|
A|-------------------|
E|-------------------|

Solo:
e|-7p4h5-7p5p4-9p5h7-9p7p5-10p7h9-10p9p7-12p9h11-12p11p9-|
B|-------------------------------------------------------|
G|-------------------------------------------------------|
D|-------------------------------------------------------|
A|-------------------------------------------------------|
E|-------------------------------------------------------|

e|-14p11h12-14p12p11-16p12h14-16p14p12-17p14h16-17p16p14--|
B|--------------------------------------------------------|
G|--------------------------------------------------------|
D|--------------------------------------------------------|
A|--------------------------------------------------------|
E|--------------------------------------------------------|

e|-19p15h17-19p17p15-19b21r19-16---------------|
B|--------------------------------19-17-16-----|
G|-----------------------------------------16--|
D|---------------------------------------------|
A|---------------------------------------------|
E|---------------------------------------------|

...si no es muy comodo pueden transladarlo hacia 2a cuerda...

e|------------------------------------------------------------------------------------|
B|------------------------------------------------------------------------------------|
G|---------------------------------------------------------------14-16--14-16-18------|
D|------------------------------14-16--14-16-18-14-16-18-19-16-18-----18--------------|
A|-14-16-18-19-14-16-18-19-16-18-----18-----------------------------------------------|
E|------------------------------------------------------------------------------------| 

e|------------------------------------------16p17h19------------|
B|------------------16-17--16-17-19-16p17h19--------------------|
G|-14-16-18-20--16-18----18-------------------------------------|
D|--------------------------------------------------------------|
A|--------------------------------------------------------------|
E|--------------------------------------------------------------|
 
e|-0-0-12-0-0-11-0-0-9-0-0-7-0-0-5-0-4-0-5-0-4-0-----------------------------------|
B|-----------------------------------------------7-0-0-5-0-0-4-0-0-4-5-7-----------|
G|-----------------------------------------------------------------------6s2s4-----|
D|---------------------------------------------------------------------------------|
A|---------------------------------------------------------------------------------|
E|---------------------------------------------------------------------------------|

e|-------14b16-------15b17r15-14-12-----14b16r14-------------|
B|-12-12-------12-12---------------12-12---------------------|
G|-----------------------------------------------11b13r11-9--|
D|-----------------------------------------------------------|
A|-----------------------------------------------------------|
E|-----------------------------------------------------------|
 
e|-17-17--19-17-17---------------------------------------------------------------|
B|------17--------17-------------------------------------------------------------|
G|-------------------14-14--16-14-14--------------------14-16--14-16-18-14-16-19-|
D|------------------------14--------14--14-16-18-19-16-18-----18-----------------|
A|-------------------------------------------------------------------------------|
E|-------------------------------------------------------------------------------|
 

e|----------------------------------------------------------------------------------------|
B|------14-16-17-16-14-19b21-17b19-(17-14-12-14-12s14)-17-19-17-14-(17-14-12-14-12s14)----|
G|-16b18------------------------------------(x3)---------------------------(x2)-----------|
D|----------------------------------------------------------------------------------------|
A|----------------------------------------------------------------------------------------|
E|----------------------------------------------------------------------------------------|

e|----------16-17-19-17-16----------------------------|
B|-16-17-19---------------19-17-19b21-21-21-21-21r19--|
G|----------------------------------------------------|
D|----------------------------------------------------|
A|----------------------------------------------------|
E|----------------------------------------------------|

Pre-coro:

e|---------16--16----------------16-19b21-19-19-19s21----|
B|-14-16-17--16-14v-12---14-16-17------------------------|
G|-------------------------------------------------------|
D|-------------------------------------------------------|
A|-------------------------------------------------------|
E|-------------------------------------------------------| 

Coro:

e|-21-19-16-21-19-16--------------------------------------------------------|
B|------------------21-19-17-21-19-17---------------------------------------|
G|-----------------------------------20-18-16-20-18-16--18-16-14-18-16-14---|
D|--------------------------------------------------------------------------|
A|--------------------------------------------------------------------------|
E|--------------------------------------------------------------------------| 

e|---------------------------------------------------------------------------------|
B|---------------------------------------------------------------------------------|
G|-16-14-13-16-14-13---------------------------------------------------------------|
D|------------------19-18-16-19-18-16--18-16-14-18-16-14--16-14-13-16-14-13-14-----|
A|---------------------------------------------------------------------------------|
E|---------------------------------------------------------------------------------|

e|---------16--16----------------16-19b21-19-19-19s21----|
B|-14-16-17--16-14v-12---14-16-17------------------------|
G|-------------------------------------------------------|
D|-------------------------------------------------------|
A|-------------------------------------------------------|
E|-------------------------------------------------------|

 ...en este coro se va disminuyendo la velocidad poco a poco hasta el fin... 
e|-21-19-16-21-19-16--------------------------------------------------------|
B|------------------21-19-17-21-19-17---------------------------------------|
G|-----------------------------------20-18-16-20-18-16--18-16-14-18-16-14---|
D|--------------------------------------------------------------------------|
A|--------------------------------------------------------------------------|
E|--------------------------------------------------------------------------| 

e|---------------------------------------------------------------------------------|
B|---------------------------------------------------------------------------------|
G|-16-14-13-16-14-13---------------------------------------------------------------|
D|------------------19-18-16-19-18-16--18-16-14-18-16-14--16-14-13-16-14-13-14-----|
A|---------------------------------------------------------------------------------|
E|---------------------------------------------------------------------------------|











---------------


version 2 








INTRO
            C         G         a
e:--------------------3---------------------0--|
B:----------1---------0---------1-----------1--|
G:*-----------------0---------0-2-------2-----*|
D:*---------------2---------0-------2---------*|
A:--2---3---3---------2---------0--------------|
E:---------------------------------------------|

            F         G         a
e:--------------------3---------------------0--|
B:--3---1---1---------0---------1-----------1--|
G:*---------2-------2---------0-2-------2-----*|
D:*---------------3---------0-------2---------*|
A:----------3---------2---------0--------------|
E:---------------------------------------------|

            C         G         a
e:--------------------3-----------------0------|
B:----------1---------0---------1---1-------1h0|
G:*-------------0---0-----0---0-2-----2---2---*|
D:*-----------2---2-----0---0-----2-----------*|
A:--2-p-3---3---------2---------0--------------|
E:---------------------------------------------|

            F         G         a
e:--------------------3-----------------0------|
B:--3-h-1---1---------0---------1---1-------1h0|
G:*---------2---2---2-----0---0-2-----2---2---*|
D:*-----------3---3-----0---0-----2-----------*|
A:----------3---------2---------0--------------|
E:---------------------------------------------|


VERSO I
         C       G       a       e
e:---------------3---3-------------------0-----|
B:-------1---1---0---0---1---1---0---0---------|
G:*------0---0---0---0---2---2---0-----0---0---|
D:*----------------------2---2---2-2-----------|
A:-0--2--3---3---2---2---0---0---2-------------|
E:---------------------------------------------|

     F           G       C       G
e:---1-------1---3---3-----------3-------0-----|
B:---------------0---0---1---1---0---0---------|
G:---2-------2---0---0---0---0---0-----0---0---|
D:---------------------------------0-----------|
A:---3-------3---2---2---2---2---2-------------|
E:---------------------------------------------|

       C         G        a        e
e:---------------3-----------------------------|
B:------1-----1--0-----0--1-----1--0-----0---0-|
G:------0---0----0---0----2---2----0---0---0---|
D:--------2--------0------2-2------2-2---------|
A:---2--3--------2--------0--------2-----------|
E:---------------------------------------------|

     F        G        C       G
e:---1--------3------------0---3-------3-------|
B:---------1--0-----0--1---1---0---0-------0---|
G:---2---2----0---0----0-------0-----0---0---0*|
D:-----2--------0----------2-----0------------*|
A:---3--------2--------3-------2---------------|
E:---------------------------------------------|

VESO II
         C     e     a     G
e:----------0-----0-----0--3----------3--------|
B:-------1--1--0--0--1--1--0------0-------0----|
G:*------0-----0-----2--2--0---0----0---0---0--|
D:*---------2-----2-----2----0---0-------------|
A:-2--3--3-----2-----0--0--2----------0--------|
E:---------------------------------------------|

         C       F       G
e:-----------------------3---------3---------3-|
B:-------1-------1-------0-------0---0---0-----|
G:-------0---0---2---2---0---0-------------0---|
D:-----------2-------3-----0---0-------0-------|
A:-3--2--3-------3-------2---------0-----0---0-|
E:---------------------------------------------|

         C        G        a        e
e:-------0-----0--3-----3--0-----0--0-----0----|
B:-3--1--1-----1--0-----0--1-----1--0-----0----|
G:-------0-----0--0-----0--2-----2--0-----0----|
D:----------2--------0--------2--------2-------|
A:-------3--------2--------0--------2----------|
E:---------------------------------------------|

      F        G        a
e:----1-----1--3----3---0---------0---------0--|
B:----1-----1--0----0---1-------1---1---1------|
G:----2-----2--0----0---2---2-------------2---*|
D:-------2----------------2---2-------2-------*|
A:----3--------2----2---0---------0-----0---0--|
E:---------------------------------------------|

ESTRIBILLO
   asus4 a       Dsus4     a
e:----------------3-----3-----------2----------|
B:--3h1--1-----1--3--------1-----1-------------|
G:-------2-----------2-----2--------------2----|
D:--2-------2-----0-----------2----------------|
A:-------0-----------------0-----------0-------|
E:---------------------------------------------|

   asus4 a       asus4     a
e:----------------------------------2----------|
B:--3h1--1-----1--3-----3--1-----1-------------|
G:-------2--------2--------2--------------2----|
D:--2-------2--------2--------2----------------|
A:-------0--------0--------0-----------0-------|
E:---------------------------------------------|

   asus4 a       Dsus4     a
e:----------------3-----3-----------2----------|
B:--3h1--1-----1--3--------1-----1-----------1-|
G:-------2-----------2-----2--------------2----|
D:--2-------2-----0-----------2----------------|
A:-------0-----------------0-----------0-------|
E:---------------------------------------------|

   F           G           a
e:----------1-----------3-----------0--------0-|
B:-1--------1--0--------0--1--------1--------1-|
G:-2-----2-----0-----0-----2-----2--------2----|
D:----3-----------0-----------2--------2-------|
A:-3-----------2-----------0-------------------|
E:---------------------------------------------|

VERSO I
         C       G       a       e
e:---------------3---3-------------------0-----|
B:-------1---1---0---0---1---1---0---0---------|
G:*------0---0---0---0---2---2---0-----0---0---|
D:*----------------------2---2---2-2-----------|
A:-0--2--3---3---2---2---0---0---2-------------|
E:---------------------------------------------|

     F           G       C       G
e:---1-------1---3---3-----------3-------0-----|
B:---------------0---0---1---1---0---0---------|
G:---2-------2---0---0---0---0---0-----0---0---|
D:---------------------------------0-----------|
A:---3-------3---2---2---2---2---2-------------|
E:---------------------------------------------|

       C         G        a        e
e:---------------3-----------------------------|
B:------1-----1--0-----0--1-----1--0-----0---0-|
G:------0---0----0---0----2---2----0---0---0---|
D:--------2--------0------2-2------2-2---------|
A:---2--3--------2--------0--------2-----------|
E:---------------------------------------------|

     F        G        C       G
e:---1--------3------------0---3-------3-------|
B:---------1--0-----0--1---1---0---0-------0---|
G:---2---2----0---0----0-------0-----0---0---0*|
D:-----2--------0----------2-----0------------*|
A:---3--------2--------3-------2---------------|
E:---------------------------------------------|

VESO II
         C     e     a     G
e:----------0-----0-----0--3----------3--------|
B:-------1--1--0--0--1--1--0------0-------0----|
G:*------0-----0-----2--2--0---0----0---0---0--|
D:*---------2-----2-----2----0---0-------------|
A:-2--3--3-----2-----0--0--2----------0--------|
E:---------------------------------------------|

         C       F       G
e:-----------------------3---------3---------3-|
B:-------1-------1-------0-------0---0---0-----|
G:-------0---0---2---2---0---0-------------0---|
D:-----------2-------3-----0---0-------0-------|
A:-3--2--3-------3-------2---------0-----0---0-|
E:---------------------------------------------|

         C        G        a        e
e:-------0-----0--3-----3--0-----0--0-----0----|
B:-3--1--1-----1--0-----0--1-----1--0-----0----|
G:-------0-----0--0-----0--2-----2--0-----0----|
D:----------2--------0--------2--------2-------|
A:-------3--------2--------0--------2----------|
E:---------------------------------------------|

      F        G        a
e:----1-----1--3-----1--0---------0---------0--|
B:----1-----1--0-----1--1-------1---1---1------|
G:----2-----2--0-----2--2---2-------------2---*|
D:-------2--------2-------2---2-------2-------*|
A:----3--------2--------0---------0-----0---0--|  X3
E:---------------------------------------------|

      F        G        a
e:----1-----1--3-----1--0---------0---------0--|
B:----1-----1--0-----1--1-------1---1---1------|
G:*---2-----2--0-----2--2---2-------------2---*|
D:*------2--------2-------2---2-------2-------*| Aqui disminulle el tempo
A:----3--------2--------0---------0-----0---0--|
E:---------------------------------------------|

y mienras el volumen va bajando.........

         C     e     a     G
e:----------0-----0-----0--3----------3--------|
B:-------1--1--0--0--1--1--0------0-------0----|
G:-------0-----0-----2--2--0---0----0---0---0--|
D:----------2-----2-----2----0---0-------------|
A:-2--3--3-----2-----0--0--2----------0--------|
E:---------------------------------------------|

         C       F       G
e:-----------------------3---------3---------3-|
B:-------1-------1-------0-------0---0---0-----|
G:-------0---0---2---2---0---0-------------0---|
D:-----------2-------3-----0---0-------0-------|
A:-3--2--3-------3-------2---------0-----0---0-|
E:---------------------------------------------|

         C        G        a        e
e:-------0-----0--3-----3--0-----0--0-----0----|
B:-3--1--1-----1--0-----0--1-----1--0-----0----|
G:-------0-----0--0-----0--2-----2--0-----0----|
D:----------2--------0--------2--------2-------|
A:-------3--------2--------0--------2----------|
E:---------------------------------------------|

      F        G        a
e:----1-----1--3----3---0---------0---------0--|
B:----1-----1--0----0---1-------1---1---1------|
G:----2-----2--0----0---2---2-------------2----|
D:-------2----------------2---2-------2--------|
A:----3--------2----2---0---------0-----0---0--|
E:---------------------------------------------|













---------------


version 3








----------------------------------------------------------------------------
TUNING: STANDARD
----------------------------------------------------------------------------

VERSE 1:
        C           G    
Si siembras una ilusion
      Am            Em
y la riegas con tu amor
  F       G      C   G
y el agua de la constancia
   C               G       
brotará en ti una flor
       Am         Em 
y su aroma y su calor
 F        G          C        G 
te arropará cuando algo vaya mal

CHORUS:
      C   Em     Am   Em
y que mi luz te acompane
        F       G      C   G  
pues la vida es un jardín
          C           G
donde lo bueno y lo malo
       Em           Am
se confunden y es humano
    F        G       C   G
no siempre saber elegir
     C   Em     Am   Em
y si te sientes perdido
        F       G      C   G  
con tus ojos no has de ver
          C           G
hazlo con los de tu alma
       Em           Am
y encontraras la calma
    F        G       C   G
tu rosa de los vientos seré


VERSE 2:
[SAME CHORDS AS VERSE 1)

si siembras un ideal

en la tierra del quiza

y la abonas con envidia

será dificil arrancar

la maldad de tu alma si hecho raiz


END!












---------------


version 4











solo of the Metal Version of La Rosa de los Vientos:


|-7p4h5-7p5p4-9p5h7-9p7p5-10p7h9-10p9p7-12p9h11-12p11p9-|
|-------------------------------------------------------|
|-------------------------------------------------------|
|-------------------------------------------------------|
|-------------------------------------------------------|
|-------------------------------------------------------|


-14p11h12-14p12p11-16p12h14-16p14p12-17p14h16-17p16p14--|
--------------------------------------------------------|
--------------------------------------------------------|
--------------------------------------------------------|
--------------------------------------------------------|
--------------------------------------------------------|


-19p15h17-19p17p15-19b21r-19-16--------------|
--------------------------------19-17-16-----|
-----------------------------------------16--|
---------------------------------------------|
---------------------------------------------|
---------------------------------------------|


|----------------------------------------------------------|
|---------------------------9------9-10----9-10-12-9-10-12-|
|------8-9----8-9-11-8-9-11---9-11------11-----------------|
|-9-11-----11----------------------------------------------|
|----------------------------------------------------------|
|----------------------------------------------------------|


-------------11----------12----------14-------14-16----14-|
-14-10-12-14----12-14-16----14-16-17----16-17-------17----|
----------------------------------------------------------|
----------------------------------------------------------|
----------------------------------------------------------|
----------------------------------------------------------|


-16-17-19----14-16-17-19--|
----------17--------------|
--------------------------|
--------------------------|
--------------------------|
--------------------------|


|-0-0-12-0-0-11-0-0-9-0-0-7-0-0-5-0-4-0-5-0-0-4-0-0-2-0-0-|
|---------------------------------------------------------|
|---------------------------------------------------------|
|---------------------------------------------------------|
|---------------------------------------------------------|
|---------------------------------------------------------|


-----------0h2-0-------|-------15b16-------15b17r15-14-12-|
-4-0-0-4-5-------0---0-|-12-12-------12-12----------------|
-------------------2---|----------------------------------|
-----------------------|----------------------------------|
-----------------------|----------------------------------|
-----------------------|----------------------------------|


-------12-14-------------|
-------------12----------|
-14-14----------13-11----|
----------------------14-|
-------------------------|
-------------------------|











---------
Want More Free Lessons?

Browse through the Archive!

PROBLEM WITH THIS TAB? | VIEW FULL SCREEN | PRINT

PureVPN - Internet Privacy is our PriorityCustom TShirts - Click Here!