Lessons/Tabs are sorted alphabetically.

Tab Vault

PROBLEM WITH THIS TAB?   VIEW FULL SCREEN   PRINT

I Miss You Girl

Ace Troubleshooter
I Miss You Girl by Ace Troubleshooter





            I Miss You Girl 







VERSE

E-------------------------------------------
B-------------------------------------------
G-------6---7---9-------6---7---9-----------    2x
D---7---6---7---9---4---6---7---9-----------
A---7---4---5---7---4---4---5---7-----------
E---5---------------2-----------------------

PRE-CHORUS

E-------------------------------------------
B-------------------------------------------
G-------------------7---6---9---------------    2x
D---7---6---4---2---7---6---9---------------
A---7---6---4---2---5---4---7---------------
E---5---4---2---0---------------------------

CHORUS

E-------------------------------------------
B-------------------------------------------
G-------9-------7---------------------------
D---7---9---4---7---------------------------
A---7---7---4---5---------------------------
E---5-------2-------------------------------

INTERLUDE BEFORE VERSE 

E-------------------------------------------
B-------------------------------------------
G-------7---9-------------------------------
D---7---7---9-------------------------------
A---7---5---7-------------------------------
E---5---------------------------------------

VERSE AGAIN

THEN PRE-CHORUS

CHORUS

BRIDGE

E-------------------------------------------
B-------------------------------------------
G-------9-------6---7-------7---9-----------
D---7---9---4---6---7---7---7---9-----------
A---7---7---4---4---5---7---5---7-----------
E---5-------2-----------5-------------------

CHORUS 2 MORE TIMES





--------------------

version 2






Verse 1:
A C# D E
F# C# D E*
A C# D E
F# C# D E*

A Ab F# E D C# E* (2x)

A E*
C# D
A E*
C# D [ A (D E*) ]

Verse 2:
A C# D E
F# C# D E*
A C# D E
F# C# D E*

A Ab F# E D C# E* (2x)

CHORUS:
A E(E*)
F#
C#  D
A
D E*

CHORUS(2x)






--------
Want More Free Lessons?

Browse through the Archive!

PROBLEM WITH THIS TAB? | VIEW FULL SCREEN | PRINT

Buy Event Tickets at TicketCity.comDiamondStuds4Less