Lessons/Tabs are sorted alphabetically.

Tab Vault

PROBLEM WITH THIS TAB?   VIEW FULL SCREEN   PRINT

Unwind

Oleander
Unwind by Oleander




                       Unwind 





Dropped D Tuning: D A D G B E



e--------------------------------------------------------|
b--------------------------------------------------------|
g--------------------------------------------------------|
d---------------------------<12>-------------------------|
a-----5--------------------------------------------------|
D--------------------------------------------------------|
                            N.H.
I assume it's accomplished with feedback, but since I'm
transcribing this "unplugged," I can't tell for sure.

Intro chords: 2 times gtr. 1 only, then 2 times both gtrs.
e-----------------------------------------------------------|
b-----------------------------------------------------------|
g-----------------------------------------------------------|
d---3--3--3--0--0--9--9--9---3--3--3--0--3--0--0--0--9--9--|
a---3--3--3--0--0--9--9--9---3--3--3--0--3--0--0--0--9--9--|
D---3--3--3--0--0--9--9--9---3--3--3--0--3--0--0--0--9--9--|
                           ^This slide can be left out--
                            Just go straight to the F

Verse
e-----------------|--------------------------------------------------|
b-----------------|--------------------------------------------------|
g-----------------|--------------------------------------------------|
d--x--x--x--x-----|--8--8--8--9--9--9--9--0--3--3--3--0--0--0--0--0--|
a--x--x--x--x-----|--8--8--8--9--9--9--9--0--3--3--3--0--0--0--0--0--|
D--x--x--x--x-----|--8--8--8--9--9--9--9--0--3--3--3--0--0--0--0--0--|

Evolution's Overrated...

(may be some wah or reverb or some other effect on muted scratches)

Chorus:

e--------------------------------------------------|
b--------------------------------------------------|
g--------------------------------------------------|
d--8--8--8--9--9--9--9--0--3--3--3--0--0--0--0--0--|
a--8--8--8--9--9--9--9--0--3--3--3--0--0--0--0--0--|
D--8--8--8--9--9--9--9--0--3--3--3--0--0--0--0--0--|

In time...

After second chorus:

e-----------------|
b-----------------|
g-----------------|  <-----------Listen to CD, but:
d---5-------------|              play once before "well,"
a---5-------------|              then once on the first "time"
D---5-------------|
Well if you could spare the time
Then it's time to break away

e-----------------------------------------------------------|
b-----------------------------------------------------------|
g-----------------------------------------------------------|
d---3--3--3--0--0--9--9--9---3--3--3--0--3--0--0--0--9--9--|
a---3--3--3--0--0--9--9--9---3--3--3--0--3--0--0--0--9--9--|
D---3--3--3--0--0--9--9--9---3--3--3--0--3--0--0--0--9--9--| x2

Solo:






-----------
Want More Free Lessons?

Browse through the Archive!

PROBLEM WITH THIS TAB? | VIEW FULL SCREEN | PRINT

PureVPN - Internet Privacy is our PriorityDiamondStuds4Less