Lessons/Tabs are sorted alphabetically.

Tab Vault

PROBLEM WITH THIS TAB?   VIEW FULL SCREEN   PRINT

Captain

Kasey Chambers

Captain by Kasey Chambers





                    Captain 






e  -----------------------------------------------
b  ----4--0--4----2-----2------4--0--4----5--0--5-
g  ------------------3----------------------------
d  -----------------------------------------------
a  -2---------------------------------------------
E  ------------2-------------4-----------0--------






its just A simple pattern, using G   D   Em & C



e-----------------------------------------
b--4--0--4----2-----2--4--0--4---5--0--5--
g----------------3------------------------
d-----------------------------------------
a-----------------------------------------
e-----------------------------------------
  
  G
well i dont have as many friends because
       D
im not as pretty as i was
      Em                                C
ive kicked myself at times because ive lied
       G
so i will have to learn to stand my ground
     D
ill tell them i wont be around
     Em                          C
ill move on over to my town and hide
                G
And you be the captain
               D
and i'll be no one
              Em                      C
and you can carry me away if you want to
              G
and you can lay low
               D
just like your father
       Em                               C
am if i tread upon your feet you just say so
                 G
cause your the captain, i am no one
        D                              C
i tend to feel as though i owe one to you
G        D     Em    C
to you
 
      G
well i have handed all my efforts in
      D
ive searched here for my second wind
      Em                            C
Is there somewhere here to let me in i ask
      G
so i slammed the doors they slammed at me
       D
i found the place im meant to be
       Em                    C
i figured out  my  destiny at last

THAN GO BACK TO THE CHORUS.
    Bm/B7    C           D          G
did i forget to thank you for the ride
       Em                D          C  
i hadnt tried i tend to run away and hide

CHORUS AGAIN.
               G            
Cause your the captain, i am no one   
              D                 C                    
i tend to feel as tho i owe 1 to you

(repeat these 2 lines twice) 
G         D       Em     C
to you




--------------------

version 2



Intro

      A        E           F#m         D    Repeat
e  -----------------------------------------------
b  ----2-----2----0-----0------2-----2----3-----3-
g  -------2----------1------------2----------2----
d  -------------------------------------0---------
a  -0---------------------------------------------
E  ------------0-------------2--------------------
        

verse                             

       A        E       F#m  D    Repeat
e  -------------------------------
b  -------2--------0-----2-----3--
g  -------------------------------
d  --------------------------0----
a  ----0--------------------------
E  -------------0------2----------
 
Chorus 1

    A            E            F#m            D    Repeat
e  -----------------------------------------------------
b  ----2-----2-------0-----0------2-----2-------3-----3-
g  -------2-------------1------------2-------------2----
d  ------------------------------------------0----------
a  -0---------------------------------------------------
E  --------------0-------------2------------------------
 
Chorus 2       
     A        E        D      Repeat
e  --0--------0--------2-------------------------
b  --2--------0--------3-------------------------
g  --2--------1--------2-------------------------
d  --2--------2--------0-------------------------
a  --0--------2----------------------------------
E  -----------0----------------------------------


bridge part

    A   Ab   F#m   E   A   F#m    E   D
e  -----0-----2----0---0----2-----0---2-------------
b  --2--0-----2----0---2----2-----0---3-------------
g  -----1-----2----1---2----2-----1---2---2--0------
d  -----1-----4----2---2----4-----2---0---------2--0
a  0----------4----2---0----4-----2-----------------
E  -----------2----0--------2-----0-----------------

    Im not too sure about this part, especially the Ab.


verse
              A
Well I don't have as many friends because
     E  
I'm not as pretty as I was
       F#m                            D
I've kicked myself at times because I've lied
           A
So I will have to learn to stand my ground
          E
I'll tell 'em I won't be around 
       F#m                          D
I'll move on over to your town and hide

Chorus 1

                 A
And you be the Captain
               E
And I'll be no-one
               F#m                  D
And you can carry me away if you want to
              A
And you can lay low
                 E
Just like your father and if
    F#m                          D
I tread upon your feet you just say so

Chorus 2

                   A
'Cos you're The Captain, I am no-one,
            E                          D
I tend to feel as though I owe one to you

verse

Well I have handed all my efforts in
I searched here for my second wind
Is there somewhere here to let me in I asked
So I slammed the doors they slammed at me
I found the place I'm meant to be
I figured out my destiny at last

Bridge part

 A     Ab       F#m          E           A           
      Did I forget to thank you for the ride 
           F#m    E                D                     
      I hadn't tried I tend to runaway and hide





--------------------

version 3




e  -----------------------------------------------|
b  ----4--0--4----2-----2------4--0--4----5--0--5-|
g  ------------------3----------------------------|
d  -----------------------------------------------|
a  -2---------------------------------------------|
E  ------------2-------------4-----------0--------|

Well I don’t [B] have as many friends because
I’m [F#] not as pretty as I was
I’ve [Abm] kicked myself at times because I’ve [E] lied
So I will [B] have to learn to stand my ground
I’ll [F#] tell ‘em I won’t be around
I’ll [Abm] move on over to your town and [E] hide

And you be the [B] Captain and I’ll be [F#] no-one
And you can [Abm] carry me away if you [E] want to
And you can lay [B] low just like your [F#] father and if
I [Abm] tread upon your feet you just [E] say so

[CHORUS]
‘cos you’re the [B] Captain ,I am no one
I tend to [F#] feel as though I owe one to [E] you

Well I have [B] handed all my efforts in
I [F#] searched here for my second wind
Is there [Abm] somewhere here to let me in I [E] asked
So I [B] slammed the doors they slammed at me
I [F#] found the place I’m meant to be
I [Abm] figured out my destiny at [E] last

CHORUS

[F#] Did I [E] forget to thank you [F#] for the [B] ride
I [F#] hadn’t [B] tried I tend to [F#] run away and [E] hide

CHORUS
And you be the [B] Captain
And I am no [F#] one
And I [E] owe one to [B] you



-------
Want More Free Lessons?

Browse through the Archive!

PROBLEM WITH THIS TAB? | VIEW FULL SCREEN | PRINT

""