Lessons/Tabs are sorted alphabetically.

Tab Vault

PROBLEM WITH THIS TAB?   VIEW FULL SCREEN   PRINT

Foli­as

Gaspar Sanz
Suite Espanola, VII - Folías by Gaspar Sanz 






                       Suite Espanola, VII - Folías 





key Fm

time 3/4


0  |  .  |  .  |  .   |  .  |  .  |  .   |  .  |  .  |  .   |  .  |  .  |  .
e|-1-----0----------|-0----------------|-------0-----1----|-0h1p0------------|
B|-3-----------3----|-2h3p2----0--2----|-3----------------|----------3--1----|
G|------------------|------------------|------------------|------------------|
D|-0=---------------|------------------|-0=---------------|------------------|
A|------------------|-0=---------------|------------------|-3=---------------|
D|------------------|------------------|------------------|------------------|



5  |  .  |  .  |  .   |  .  |  .  |  .   |  .  |  .  |  .   |  .  |  .  |  .
e|-1=---------------|-0h1p0------------|-1=----------3/---|-5----------------|
B|-1=---------------|----------3--1----|-3=----------3/---|-5--------0-------|
G|-------0-----2----|------------------|------------------|-------------2----|
D|-3----------------|------------------|-0----------------|------------------|
A|------------------|-3=---------------|-------3-----1----|-0=---------------|
D|------------------|------------------|------------------|------------------|



9  |  .  |  .  |  .   |  .  |  .  |  .   |  .  |  .  |  .   |  .  |  .  |  .
e|-1-----0----------|-0----------------|-1-----0-----1----|-0h1p0------------|
B|-3-----------3----|-2h3p2----0--2----|-3----------------|----------3--1----|
G|------------------|------------------|------------------|------------------|
D|-0=---------------|------------------|-0=---------------|------------------|
A|------------------|-0=---------------|------------------|-3=---------------|
D|------------------|------------------|------------------|------------------|



13 |  .  |  .  |  .   |  .  |  .  |  .   |  .  |  .  |  .   |  .   |  .  |  .
e|-1=---------------|-0-----------0----|-1-----1----------|-1----#-5--3--1--0-|
B|-1=---------------|-1--------3-------|-------3-----2----|-3----#------------|
G|-------0-----2----|------------------|------------------|------#------------|
D|-3----------------|------------------|-0----------------|-0=---#------------|
A|------------------|-3=---------------|-------0=---------|------#------------|
D|------------------|------------------|------------------|-0=---#------------|



17 |  .  |  .  |  .   |  .  |  .  |  .   |  .  |  .  |  .   |  .  |  .  |  .
e|-1p0h1-0----------|------------------|------------------|-0h1p0=-----------|
B|-------------3----|-2h3p2=-----------|-3-----5--3-------|------------------|
G|------------------|-------2--0-------|------------------|-------0----------|
D|-0----------------|-------------3--2-|-0----------------|----------3--2--0-|
A|-------3-----1----|-0----------------|-------3--1-------|-3----------------|
D|------------------|------------------|------------------|------------------|


                                                     ~
21 |  .  |  .  |  .   |  .  |  .  |  .   |  .  |  .  |  .   |  .  |  .  |  .
e|-5-----3-----1----|-0h1p0-1--0-------|-------0----------|-0-----5--3--1--0-|
B|------------------|-------------3--1-|-3-----1-----3----|-2h3p2------------|
G|------------------|------------------|-------------3----|------------------|
D|-3-----2-----0----|------------------|-0=---------------|------------------|
A|------------------|-3=---------------|------------------|-0=---------------|
D|------------------|------------------|------------------|------------------|
   ~



25 |  .  |  .  |  .   |  .  |  .  |  .   |  .  |  .  |  .   |  .  |  .  |  .
e|-1p0h1-0----------|-0=---------------|-------0----------|-0h1p0------------|
B|-------------3----|-2h3p2------------|-3-----------3----|------------------|
G|------------------|-------2-p0-------|------------------|-------0----------|
D|-0----------------|-------------3p2--|-0----------------|----------3--2--0-|
A|-------3-----1----|-0----------------|-------3-----2----|-3----------------|
D|------------------|------------------|------------------|------------------|



29 |  .  |  .  |  .   |  .  |  .  |  .   |  .  |  .  |  .   |  .  |  .  |  .
e|-5-----3-----1----|-3=---------------|-------------3----|-1=---------------#
B|------------------|------------------|-3-----2----------|-3=---------------#
G|------------------|-3----------------|------------------|------------------#
D|-3-----2-----0----|-------3--2--0----|------------------|-0=---------------#
A|------------------|----------------3-|-1-----0=---------|------------------#
D|------------------|------------------|------------------|------------------#
    (Slow down)

                                                                        ~
33 |  .  |  .  |  .   |  .  |  .  |  .   |  .  |  .  |  .   |  .  |  .  |  .
e|-------------0h1p0|-------------0----|-------------1h3p1|-------0--1--3----|
B|-------3----------|----0--2--3-------|-------3----------|----3-------------|
G|------------------|-------------0----|------------------|-------0-----5----|
D|-0=---------------|-------2----------|-0=---------------|------------------|
A|------------------|-0=---------------|------------------|-3=---------------|
D|------------------|------------------|------------------|------------------|


   CIII.............              ~
37 |  .  |  .  |  .   |  .  |  .  |  .   |  .  |  .  |  .   |  .  |  .  |  .
e|-------------5h6--|-------0--1--3----|-------------1h3p1|-------------0----|
B|-------3----------|----3-------------|-------3----------|----0--2--3-------|
G|------------------|-------0-----5----|------------------|-------------0----|
D|-3=---------------|------------------|-0=---------------|-------2----------|
A|------------------|-3=---------------|------------------|-0=---------------|
D|------------------|------------------|------------------|------------------|


                                                                        ~
41 |  .  |  .  |  .   |  .  |  .  |  .   |  .  |  .  |  .   |  .  |  .  |  .
e|-------------0h1p0|-------------0----|-------------1h3p1|-------0--1--3----|
B|-------3----------|----0--2--3-------|-------3----------|----3-------------|
G|------------------|-------------0----|------------------|-------0-----5----|
D|-0=---------------|-------2----------|-0=---------------|------------------|
A|------------------|-0=---------------|------------------|-3=---------------|
D|------------------|------------------|------------------|------------------|


   CIII.............
45 |  .  |  .  |  .   |  .  |  .  |  .   |  .  |  .  |  .   |  .  |  .  |  .
e|-------------5h6p5|------------------|-------------0----|-1=---------------#
B|-------3----------|-0-----0--2--3----|-------2----------|-3=---------------#
G|------------------|-0--2-------------|------------------|------------------#
D|-3=---------------|------------------|------------------|-0=---------------#
A|------------------|------------------|-0=---------------|------------------#
D|------------------|------------------|------------------|-0=---------------#
				(Slow Down)


49 |  .  |  .  |  .   |  .  |  .  |  .   |  .  |  .  |  .   |  .  |  .  |  .
e|-1--0-----0--1----|-0-----------0----|----------0--1--3-|-0--------3--1--0-|
B|-------3--------3-|-2--0--2--3-----2-|-3--2--3----------|----3--1----------|
G|------------------|------------------|------------------|------------------|
D|-0=---------------|------------------|-0=---------------|------------------|
A|------------------|-0=---------------|------------------|-3=---------------|
D|------------------|------------------|------------------|------------------|



53 |  .  |  .  |  .   |  .  |  .  |  .   |  .  |  .  |  .   |  .  |  .  |  .
e|-5=---------------|-3--1--0--1--3--0-|-1--0-----0--1----|-0----------------|
B|------------------|------------------|-------3--------3-|-2--0-----0--2----|
G|------------------|------------------|------------------|-------2--------2-|
D|-3--2--0--2--3--0-|-2=---------------|-0=---------------|------------------|
A|------------------|------------------|------------------|-0=---------------|
D|------------------|------------------|------------------|------------------|



57 |  .  |  .  |  .   |  .  |  .  |  .   |  .  |  .  |  .   |  .  |  .  |  .
e|-1--0-----0--1----|-0-----------0----|----------0--1--3-|-0--------3--1--0-|
B|-------3--------3-|-2--0--2--3-----2-|-3--2--3----------|----3--1----------|
G|------------------|------------------|------------------|------------------|
D|-0=---------------|------------------|-0=---------------|------------------|
A|------------------|-0=---------------|------------------|-3=---------------|
D|------------------|------------------|------------------|------------------|



61 |  .  |  .  |  .   |  .  |  .  |  .   |  .  |  .  |  .   |  .  |  .  |  .
e|-5=---------------|-1--0-----0--1----|-0-----------0----|-1=---------------##
B|------------------|-------3--------3-|-2--3--2--3-----2-|-3=---------------##
G|------------------|------------------|------------------|------------------##
D|-3--2--0--2--3--0-|-2=---------------|------------------|-0=---------------##
A|------------------|------------------|-0=---------------|------------------##
D|------------------|------------------|------------------|-0----------------##



--------------------

version 2





=  note held (sustained) to the end of the bar (measure)
h  hammer-on
p  pull-off
/  slide up
  slide down
~  turn (bars 21,23,36,38,44)
CIII  barre on 3rd fret with 1st finger

key Fm
time 3/4


0  |  .  |  .  |  .   |  .  |  .  |  .   |  .  |  .  |  .   |  .  |  .  |  .
e|-1-----0----------|-0----------------|-------0-----1----|-0h1p0------------|
B|-3-----------3----|-2h3p2----0--2----|-3----------------|----------3--1----|
G|------------------|------------------|------------------|------------------|
D|-0=---------------|------------------|-0=---------------|------------------|
A|------------------|-0=---------------|------------------|-0=---------------|
E|------------------|------------------|------------------|------------------|



5  |  .  |  .  |  .   |  .  |  .  |  .   |  .  |  .  |  .   |  .  |  .  |  .
e|-1=---------------|-0h1p0------------|-1=---------------|-0----------------|
B|-1=---------------|----------3--1----|-3=---------------|-2h3p2----0-------|
G|-------0-----2----|------------------|------------------|-------------2----|
D|-3----------------|------------------|-0----------------|------------------|
A|------------------|-3=---------------|-------3-----1----|-0=---------------|
E|------------------|------------------|------------------|------------------|



9  |  .  |  .  |  .   |  .  |  .  |  .   |  .  |  .  |  .   |  .  |  .  |  .
e|-1-----0----------|-0----------------|-1-----0-----1----|-0h1p0------------|
B|-3-----------3----|-2h3p2----0--2----|-3----------------|----------3--1----|
G|------------------|------------------|------------------|------------------|
D|-0=---------------|------------------|-0=---------------|------------------|
A|------------------|-0=---------------|------------------|-3=---------------|
E|------------------|------------------|------------------|------------------|



13 |  .  |  .  |  .   |  .  |  .  |  .   |  .  |  .  |  .   |  .   |  .  |  .
e|-1=---------------|-0-----------0----|-1-----1----------|-1----#-5--3--1--0-|
B|-1=---------------|-1--------3-------|-------3-----2----|-3----#------------|
G|-------0-----2----|------------------|------------------|------#------------|
D|-3----------------|------------------|-0----------------|-0=---#------------|
A|------------------|-3=---------------|-------0=---------|------#------------|
E|------------------|------------------|------------------|------#------------|



17 |  .  |  .  |  .   |  .  |  .  |  .   |  .  |  .  |  .   |  .  |  .  |  .
e|-1p0h1-0h1p0------|------------------|------------------|-0h1p0=-----------|
B|-------------3----|-2h3p2=-----------|-3-----5/65-3----|------------------|
G|------------------|-------2--0-------|------------------|-------0----------|
D|-0----------------|-------------3--2-|-0----------------|----------3--2--0-|
A|-------3-----1p0h1|-0----------------|-------3/53-1p0h1|-3----------------|
E|------------------|------------------|------------------|------------------|


                                                     ~
21 |  .  |  .  |  .   |  .  |  .  |  .   |  .  |  .  |  .   |  .  |  .  |  .
e|-5-----3-----1p0h1|-0h1p0-1--0-------|-------0----------|-0-----5--3--1--0-|
B|------------------|-------------3--1-|-3-----1-----3----|-2h3p2------------|
G|------------------|------------------|-------------3----|------------------|
D|-3-----2-----0----|------------------|-0=---------------|------------------|
A|------------------|-3=---------------|------------------|-0=---------------|
E|------------------|------------------|------------------|------------------|
   ~



25 |  .  |  .  |  .   |  .  |  .  |  .   |  .  |  .  |  .   |  .  |  .  |  .
e|-1p0h1-0----------|-0=---------------|-------0----------|-0h1p0------------|
B|-------------3----|-2=---------------|-3-----------3----|------------------|
G|------------------|-------2--0-------|------------------|-------0----------|
D|-0----------------|-------------3-2--|-0----------------|----------3--2--0-|
A|-------3-----1h0p1|-0----------------|-------3-----2----|-3----------------|
E|------------------|------------------|------------------|------------------|



29 |  .  |  .  |  .   |  .  |  .  |  .   |  .  |  .  |  .   |  .  |  .  |  .
e|-5-----3-----1----|-3=---------------|-------------3----|-1=---------------#
B|------------------|------------------|-3-----2----------|-3=---------------#
G|------------------|-3----------------|------------------|------------------#
D|-3-----2-----0----|-------3--2--0----|------------------|-0=---------------#
A|------------------|----------------3-|-1-----0=---------|------------------#
E|------------------|------------------|------------------|------------------#


                                                                        ~
33 |  .  |  .  |  .   |  .  |  .  |  .   |  .  |  .  |  .   |  .  |  .  |  .
e|-------------0h1p0|-------------0h1p0|-------------1p0h1|-------0--1--3----|
B|-------3----------|----0--2--3-------|-------3----------|----3-------------|
G|------------------|------------------|------------------|------------------|
D|-0=---------------|------------------|-0=---------------|------------------|
A|------------------|-0=---------------|------------------|-3=---------------|
E|------------------|------------------|------------------|------------------|


   CIII.............              ~
37 |  .  |  .  |  .   |  .  |  .  |  .   |  .  |  .  |  .   |  .  |  .  |  .
e|-------------5----|-------0--1--3----|-------------1p0h1|-------------0h1p0|
B|-------3----------|----3-------------|-------3----------|----0--2--3-------|
G|------------------|------------------|------------------|------------------|
D|-3=---------------|------------------|-0=---------------|------------------|
A|------------------|-3=---------------|------------------|-0=---------------|
E|------------------|------------------|------------------|------------------|


                                                                        ~
41 |  .  |  .  |  .   |  .  |  .  |  .   |  .  |  .  |  .   |  .  |  .  |  .
e|-------------0----|-------------0h1p0|-------------1p0h1|-------0--1--3----|
B|-------3----------|----0--2--3-------|-------3----------|----3-------------|
G|------------------|------------------|------------------|------------------|
D|-0=---------------|------------------|-0=---------------|------------------|
A|------------------|-0=---------------|------------------|-3=---------------|
E|------------------|------------------|------------------|------------------|


   CIII.............
45 |  .  |  .  |  .   |  .  |  .  |  .   |  .  |  .  |  .   |  .  |  .  |  .
e|-------------5----|------------------|-------------0----|-1=---------------#
B|-------3----------|-0-----0--2--3----|-------2----------|-3=---------------#
G|------------------|-0--2-------------|------------------|------------------#
D|-3=---------------|------------------|------------------|-0=---------------#
A|------------------|------------------|-0=---------------|------------------#
E|------------------|------------------|------------------|------------------#



49 |  .  |  .  |  .   |  .  |  .  |  .   |  .  |  .  |  .   |  .  |  .  |  .
e|-1--0-----0--1----|-0-----------0----|----------0--1--3-|-0--------3--1--0-|
B|-------3--------3-|-2--0--2--3-----2-|-3--2--3----------|----3--1----------|
G|------------------|------------------|------------------|------------------|
D|-0=---------------|------------------|-0=---------------|------------------|
A|------------------|-0=---------------|------------------|-3=---------------|
E|------------------|------------------|------------------|------------------|



53 |  .  |  .  |  .   |  .  |  .  |  .   |  .  |  .  |  .   |  .  |  .  |  .
e|-5=---------------|-3--1--0--1--3--0-|-1--0-----0--1----|-0----------------|
B|------------------|------------------|-------3--------3-|-2--0-----0--2----|
G|------------------|------------------|------------------|-------2--------2-|
D|-3--2--0--2--3--0-|-2=---------------|-0=---------------|------------------|
A|------------------|------------------|------------------|-0=---------------|
E|------------------|------------------|------------------|------------------|



57 |  .  |  .  |  .   |  .  |  .  |  .   |  .  |  .  |  .   |  .  |  .  |  .
e|-1--0-----0--1----|-0-----------0----|----------0--1--3-|-0--------3--1--0-|
B|-------3--------3-|-2--0--2--3-----2-|-3--2--3----------|----3--1----------|
G|------------------|------------------|------------------|------------------|
D|-0=---------------|------------------|-0=---------------|------------------|
A|------------------|-0=---------------|------------------|-3=---------------|
E|------------------|------------------|------------------|------------------|



61 |  .  |  .  |  .   |  .  |  .  |  .   |  .  |  .  |  .   |  .  |  .  |  .
e|-5=---------------|-1--0-----0--1----|-0-----------0----|-1=---------------##
B|------------------|-------3--------3-|-2--3--2--3-----2-|-3=---------------##
G|------------------|------------------|------------------|------------------##
D|-3--2--0--2--3--0-|-2=---------------|------------------|-0=---------------##
A|------------------|------------------|-0=---------------|------------------##
E|------------------|------------------|------------------|------------------##






-----------
Want More Free Lessons?

Browse through the Archive!

PROBLEM WITH THIS TAB? | VIEW FULL SCREEN | PRINT

Knoxville, Start Saving up to 70% at Half Off Depot. Start Saving Now!Buy Now