Lessons/Tabs are sorted alphabetically.

Tab Vault

PROBLEM WITH THIS TAB?   VIEW FULL SCREEN   PRINT

Torir Scald

Nomans Land
Torir Scald by Nomans Land 




                           Torir Scald
  






Lead Guitar, Tuning D (D-A-F-C-G-D); roughly 240/128BPM

I:      Intro pt.1 (0:00-0:16/2:22-2:30)
     E.  S  E  S  S  E  T  T  S  E  E    E  T  T  S  E  E  T  T  S  E  Q  4x
D||-----------------------------------|-----------------------------------||
A||o----------------------------------|----------------------------------o||
F||--16-14-16-14-12-14-11h12p11--9-14-|-12-11h12p11--9-14-12h14p12-11--9--||
C||-----------------------------------|-----------------------------------||
G||o----------------------------------|----------------------------------o||
D||-----------------------------------|-----------------------------------||


II:     Intro pt.2 (0:17-0:32/2:05-2:21)
        (Keyboard)
     S  S  E  E  S  S  S  S  E  E  E    S  S  E  E  E  S  S  E  Q
D||----------------------------------|----------------------------|
A||----------------------------------|----------------------------|
F||-------------14p11-14-12-11-12----|-------------12-14-12-11-12-|
C||-14-12-14-14-------------------14-|-14-12-14-14----------------|
G||----------------------------------|----------------------------|
D||----------------------------------|----------------------------|

     S  S  E  E   E    S  S  E  Q       E     E  S  S  E  H
  |----------------------------------|---------------------------||
  |----------------------------------|--------------------------o||
  |-------------16----14-12-11-------|-16----14-11-12-14---------||
  |-14-12-14-14----------------14----|-------------------14------||
  |----------------------------------|--------------------------o||
  |----------------------------------|---------------------------||


III:    Intro pt.3 (0:33-0:41)
    E  E  E  S  S  E  S  S  E  E    E  E  E  S  S  S  S  E  Q
D|-------------------------------|----------------------------|
A|-------------------------------|----------------------------|
F|-16-16-16----14-17----14-16----|-12-12-12----------------12-|
C|----------14-------14-------14-|----------10-10-12-12-12----|
G|-------------------------------|----------------------------|
D|-------------------------------|----------------------------|


IV:    Verse (0:41-0:57/1:06-1:14/1:49-2:05---------------------|
D|--------------------------------------------------------------|
A|--------------------------------------------------------------|
F|--------------------------------------------------------------|
C|--------------------------------------------------------------|
G|--------------------------------------------------------------|
D|--------------------------------------------------------------|


V:      Interlude (0:57-1:05)
D|------------------------------------------------------------|
A|------------------------------------------------------------|
F|------------------------------------------------------------|
C|------------------------------------------------------------|
G|------------------------------------------------------------|
D|------------------------------------------------------------|


VI:     Chorus (1:16-1:48/2:30-2:45)
                                 _________________________
                                |1./5.
      E  E  E  E  E  S  S  E  E    E  E  E  E  S  S  E  Q
D||-----------------------------|-------------------------|
A||o----------------------------|-------------------------|
F||--12-------12-14-12-11-12----|-12-------12-14-12-11----|
C||-----14-14----------------14-|----14-14-------------14-|
G||o----------------------------|-------------------------|
D||-----------------------------|-------------------------|
   ___________________ _________________________
  |2./4./6./8.        |3./7.
     E  S  S  E  E  H    E E  E E  E  T  T  S Q
  |-------------------|-------------------------||
  |-------------------|------------------------o||
  |-12----------------|-12-----12-14-11h12p11---||
  |----14p12h14-12-14-|---14-14--------------14-||
  |-------------------|------------------------o||
  |-------------------|-------------------------||


VII:    Interlude (2:46-3:08)    VIII:  Interlude (3:09-3:37)
D|------------------------------|------------------------------|
A|------------------------------|------------------------------|
F|------------------------------|------------------------------|
C|------------------------------|------------------------------|
G|------------------------------|------------------------------|
D|------------------------------|------------------------------|


IX:     Outro-Solo (3:38-4:10)
D|------------------------------------------------------------|
A|------------------------------------------------------------|
F|------------------------------------------------------------|
C|------------------------------------------------------------|
G|------------------------------------------------------------|
D|------------------------------------------------------------|











-------------
Want More Free Lessons?

Browse through the Archive!

PROBLEM WITH THIS TAB? | VIEW FULL SCREEN | PRINT

AutomotixBuy Event Tickets at TicketCity.com