Lessons/Tabs are sorted alphabetically.

Tab Vault

PROBLEM WITH THIS TAB?   VIEW FULL SCREEN   PRINT

Cada Ano

Pastilla
Cada Ano by Pastilla 




                         Cada Ano 





Acordes:

      D       G       A       G'      F#'      E       F#
e||-------|-------|-------|-------|--------|-------|-------||
B||-------|-------|-------|-------|--------|-------|-------||
G||---7---|-------|-------|---12--|---11---|---9---|-------||
D||---7---|---5---|---7---|---12--|---11---|---9---|---4---||
A||---5---|---5---|---7---|---10--|---9----|---7---|---4---||
E||-------|---3---|---5---|-------|--------|-------|---2---||


Inicio:

     D     G/A G/A     D     G'     F#'    E      G'   F#'
e||-------------------------------------------------------
B||-------------------------------------------------------
G||--7-----------------7-----12-----11-----9-----12----11-
A||--7-----5/7-5/7-----7-----12-----11-----9-----12----11-
D||--5-----5/7-5/7-----5-----10-----9------7-----10----9--
E||--------3/5-3/5----------------------------------------

       E     F#'    E     D     G/A G/A     D
e||-------------------------------------------------
B||-------------------------------------------------
G||----9-----11-----5-----7-----------------7-------
A||----9-----11-----5-----7-----5/7-3/5-----7-------
D||----7-----9------7-----5-----5/7-5/5-----5-------
E||-----------------------------3/5-5/5-------------


VERSO:


              G'    F#'   E
DIME, ¿QUÉ QUIERES SER DE MI?
            G'F#' E
QUE SIN MI NO PODRAS,
           F#'   E      D    G/A  G/A  D
QUE SIN MI NO ERES FELIZ.


        G'    F#'   E
SABE IGUAL LA MISMA FE
           G'   F#'     E
QUE NOS LLEVÓ A LA AMBICIóN,
         F#'  E      D    G/A  G/A
Y NOS DEJÓ EN EL CAFE.


 D F# G A
CADA AÑO TE ENCUENTRO
 D F#  G     A       D
Y ESTA ES LA ULTIMA VEZ.
   F# G A D
CADA AÑO TE ENCUENTRO
F#    G     A       D
Y ES  LA ULTIMA VEZ.


RIFF INTERMEDIO

e||------------------------------------------------------------------------
B||------------------------------------------------------------------------
G||------------------------------------------------------------------------
A||--------7542/4---------7542/4---------7/5/4/24-4-4-4-4-4-4-4-4-4-4-4-4-4
D||--7/97-------------7/97-------------7/97--------------------------------
E||------------------------------------------------------------------------

     G/A    G/A    D
e||----------------------
B||----------------------
G||----------------7-----
A||--5/7----5/7----7-----
D||--5/7----5/7----5-----
E||--3/5----3/5----------


            G'  F#'  E
DEJA TU CUERPO FLOTAR,
            G'  F#'  E
AL RITMO DE ESTA CIUDAD
         F#' E   D  G/A  G/A  D
PARA vER  SI ESTA.

         G' F#' E
DEJA TU REALIDAD,
            G'  F#'     E
QUE NOS LLEVÓ A LA AMBICIÓN
         F#'  E     D    G/A  G/A
Y NOS DEJÓ EN EL CAFE.


 D F# G A
CADA AÑO TE ENCUENTRO
 D F#  G     A       D
Y ESTA ES LA ULTIMA VEZ.
   F# G A D
CADA AÑO TE ENCUENTRO
F#    G     A       D
Y ES  LA ULTIMA VEZ.
   F# G A D
CADA AÑO TE ENCUENTRO
F#    G     A       D
Y ES  LA ULTIMA VEZ.
   F# G A D
CADA AÑO TE ENCUENTRO
F#    G     A       D
Y ES  LA ULTIMA VEZ.









-----------
Want More Free Lessons?

Browse through the Archive!

PROBLEM WITH THIS TAB? | VIEW FULL SCREEN | PRINT

""