Lessons/Tabs are sorted alphabetically.

Tab Vault

PROBLEM WITH THIS TAB?   VIEW FULL SCREEN   PRINT

Bow Down

Born Of Osiris
Bow Down by Born Of Osiris






                              Bow Down







Tuning: Drop C


|---------------------------------------------------------------------------|
|---------------------------------------------------------------------------|
|--------------------------------2*-------------------------------2*--------|
|-321-0-321-0-321-0-320000321-0-----321-0-321-0-321-0-320000321-0-----------|
|-321-0-321-0-321-0-320000321-0-----321-0-321-0-321-0-320000321-0-----------|
|-321-0-321-0-321-0-320000321-0-----321-0-321-0-321-0-320000321-0-----------|
  *** * *** * *** * ********* *     *** * *** * *** * ********* *

|---------------------------------------------------------------------------|
|---------------------------------------------------------------------------|
|--------------------------------2*-----------------------------------------|
|-000-0-000-0-000-0-000000000-0-----000-0-000-0-000-0-000000000-000---------|
|-000-0-000-0-000-0-000000000-0-----000-0-000-0-000-0-000000000-000---------|
|-000-0-000-0-000-0-000000000-0-----000-0-000-0-000-0-000000000-000---------|
  *** * *** * *** * ********* *     *** * *** * *** * ********* ***

|----------------------|
|----------------------|
|----------------------|
|-00-0-0--00-0--00-0---| Repeat X3
|-00-0-0--00-0--00-0---|
|-00-0-0--00-0--00-0---|
  ** * *  ** *  ** *

|---------------------------------------------------------------|
|---------------------------------------------------------------|
|-----------------------------------3----8----5/11--------------|
|-----------------------------------x----x----x-x---------------|
|----5----6----3--------------------5----6----3/9---------------|
|-00---00---00---3-00-00-0-00-0--00---00---00------00-00-0-00-0-|
  **   **   **     ** ** * ** *  **   **   **      ** ** * ** *

|---------------------------|
|---------------------------|
|---------------------------|
|---------------------------|
|----6----6----5-----6-000--|
|-00-5-00-5-00-6-0-0-3-000--|
  **   **   **   * *   ***

Solo:
|-10h12~-10-----------------------------------10-13-12-10-8~----------------|
|------------10--8----------------------10-12----------------10-11-13-13^---|
|------------------------------9~-10-12-------------------------------------|
|-------------------7-8-10-10^----------------------------------------------|
|---------------------------------------------------------------------------|
|---------------------------------------------------------------------------|

|-10h12p10------------------------------------------------------------------|
|----------12-10------------------------------------------------------------|
|----------------12-10------------------------------------------------------|
|----------------------12-10-12-/14^--------------------------9-11~---------|
|------------------------------------12-10-10h12p10-8~--10-12---------------|
|---------------------------------------------------------------------------|

|-10h12p10------------------------------------------------------------------|
|----------12-10------------------------------------------------------------|
|----------------12-10------------------------------------------------------|
|----------------------12-10-12-/14^----15-14--11~--------------------------|
|------------------------------------12-------------------------------------|
|---------------------------------------------------------------------------|

BREAKDOWN!!! 

|---------------------------------------------------------------------------|
|---------------------------------------------------------------------------|
|--------------------------------2*-------------------------------2*--------|
|-321-0-321-0-321-0-320000321-0-----321-0-321-0-321-0-320000321-0-----------|
|-321-0-321-0-321-0-320000321-0-----321-0-321-0-321-0-320000321-0-----------|
|-321-0-321-0-321-0-320000321-0-----321-0-321-0-321-0-320000321-0-----------|
  *** * *** * *** * ********* *     *** * *** * *** * ********* *

|---------------------------------------------------------------------------|
|---------------------------------------------------------------------------|
|--------------------------------2*-----------------------------------------|
|-000-0-000-0-000-0-000000000-0-----000-0-000-0-000-0-000000000-000---------|
|-000-0-000-0-000-0-000000000-0-----000-0-000-0-000-0-000000000-000---------|
|-000-0-000-0-000-0-000000000-0-----000-0-000-0-000-0-000000000-000---------|
  *** * *** * *** * ********* *     *** * *** * *** * ********* ***

|----------------------|
|----------------------|
|----------------------|
|-00-0-0--00-0--00-0---| Repeat X3
|-00-0-0--00-0--00-0---|
|-00-0-0--00-0--00-0---|
  ** * *  ** *  ** *

|---------------------------------------------------------------|
|---------------------------------------------------------------|
|-----------------------------------3----8----5/11--------------|
|-----------------------------------x----x----x-x---------------|
|----5----6----3--------------------5----6----3/9---------------|
|-00---00---00---3-00-00-0-00-0--00---00---00------00-00-0-00-0-|
  **   **   **     ** ** * ** *  **   **   **      ** ** * ** *

|---------------------------|
|---------------------------|
|---------------------------|
|---------------------------|
|----6----6----5-----6-666--|
|-00-5-00-5-00-6-0-0-3-333--|
  **   **   **   * *   ***


| /  slide up
|   slide down
| h  hammer-on
| p  pull-off
| ~  vibrato
| +  harmonic
| x  Mute note


--------------------

version 2




Tuning: Drop C (CGCFAD)



|---------------------------------------------------------------------------|
|---------------------------------------------------------------------------|
|---------------------------------------------------------------------------|
|--------------------------------2*-------------------------------2*--------|
|-321-0-321-0-321-0-320000321-0-----321-0-321-0-321-0-320000321-0-----------|
|-321-0-321-0-321-0-320000321-0-----321-0-321-0-321-0-320000321-0-----------|
  *** * *** * *** * ********* *     *** * *** * *** * ********* *

|---------------------------------------------------------------------------|
|---------------------------------------------------------------------------|
|---------------------------------------------------------------------------|
|--------------------------------2*-----------------------------------------|
|-000-0-000-0-000-0-000000000-0-----000-0-000-0-000-0-000000000-000---------|
|-000-0-000-0-000-0-000000000-0-----000-0-000-0-000-0-000000000-000---------|
  *** * *** * *** * ********* *     *** * *** * *** * ********* ***
-
|------------------------|
|------------------------|
|------------------------|
|------------------------| Repeat X3
|-00-0-0--00-0----00-0---|
|-00-0-0--00-0----00-0---|
  ** * *  ** *    ** *

|---------------------------------------------------------------|
|---------------------------------------------------------------|
|-----------------------------------3----8----5/11--------------|
|-----------------------------------x----x----x-x---------------|
|----5----6----3--------------------5----6----3/9---------------|
|-00---00---00---4-00-00-0-00-0--00---00---00------00-00-0-00-0-|
  **   **   **     ** ** * ** *  **   **   **      ** ** * ** *

|---------------------------|
|---------------------------|
|---------------------------|
|---------------------------|
|----6----6----5-----6-000--|
|-00-5-00-5-00-6-0-0-3-000--|
  **   **   **   * *   ***

Solo:
|-10h12~-10-----------------------------------10-13-12-10-8~----------------|
|------------10--8----------------------10-12----------------10-11-13-13^---|
|------------------------------9~-10-12-------------------------------------|
|-------------------7-8-10-10^----------------------------------------------|
|---------------------------------------------------------------------------|
|---------------------------------------------------------------------------|

|-10h12p10------------------------------------------------------------------|
|----------12-10------------------------------------------------------------|
|----------------12-10------------------------------------------------------|
|----------------------12-10-12-/14^--------------------------9-11~---------|
|------------------------------------12-10-10h12p10-8~--10-12---------------|
|---------------------------------------------------------------------------|

|-10h12p10------------------------------------------------------------------|
|----------12-10------------------------------------------------------------|
|----------------12-10------------------------------------------------------|
|----------------------12-10-12-/14^----15-14--11~--------------------------|
|------------------------------------12-------------------------------------|
|---------------------------------------------------------------------------|



==BREAKDOWN!!!===============================================================
+snare alone first x1

|----------------------|
|----------------------|
|----------------------|
|------------------2*--|  x1
|-000--000--000--0-----|
|-000--000--000--0-----|
  ***  ***  ***  *


|-----------------------------------------|
|-----------------------------------------|
|-----------------------------------------|
|-----------------------------------------| x1 half time
|-000--000--000--000--000--000--000--000--| then, x1 half time
|-000--000--000--000--000--000--000--000--| 
  ***  ***  ***  ***  ***  ***  ***  ***


|------------------------------------------|
|------------------------------------------|
|------------------------------------------|
|---------------------------------------2*-| x1 with snare 
|-000--000000--000--000000--000--000--0----| 
|-000--000000--000--000000--000--000--0----| 
  ***  ******  ***  ******  ***  ***  *

|------------------------------------------|
|------------------------------------------|
|------------------------------------------|
|---------------------------------------2*-| x3
|-000--000000--000--000000--000--000--0----| 
|-000--000000--000--000000--000--000--0----| 
  ***  ******  ***  ******  ***  ***  *

|------------------------------------------|
|------------------------------------------|
|------------------------------------------|
|----------------------------------------0-| x1
|-000--000000--000--000000--000--000--0--0-| 
|-000--000000--000--000000--000--000--0--0-| 
  ***  ******  ***  ******  ***  ***  *  *

=============================================================================
 

|---------------------------------------------------------------------------|
|---------------------------------------------------------------------------|
|---------------------------------------------------------------------------|
|--------------------------------2*-------------------------------2*--------|
|-321-0-321-0-321-0-320000321-0-----321-0-321-0-321-0-320000321-0-----------|
|-321-0-321-0-321-0-320000321-0-----321-0-321-0-321-0-320000321-0-----------|
  *** * *** * *** * ********* *     *** * *** * *** * ********* *

|---------------------------------------------------------------------------|
|---------------------------------------------------------------------------|
|---------------------------------------------------------------------------|
|--------------------------------2*-----------------------------------------|
|-000-0-000-0-000-0-000000000-0-----000-0-000-0-000-0-000000000-000---------|
|-000-0-000-0-000-0-000000000-0-----000-0-000-0-000-0-000000000-000---------|
  *** * *** * *** * ********* *     *** * *** * *** * ********* ***

|----------------------|
|----------------------|
|----------------------|
|-00-0-0--00-0--00-0---| Repeat X3
|-00-0-0--00-0--00-0---|
|-00-0-0--00-0--00-0---|
  ** * *  ** *  ** *

|---------------------------------------------------------------|
|---------------------------------------------------------------|
|-----------------------------------3----8----5/11--------------|
|-----------------------------------x----x----x-x---------------|
|----5----6----3--------------------5----6----3/9---------------|
|-00---00---00---3-00-00-0-00-0--00---00---00------00-00-0-00-0-|
  **   **   **     ** ** * ** *  **   **   **      ** ** * ** *

|---------------------------|
|---------------------------|
|---------------------------|
|---------------------------|
|----6----6----5-----6-666--|
|-00-5-00-5-00-6-0-0-3-333--|
  **   **   **   * *   ***



--------------
Want More Free Lessons?

Browse through the Archive!

PROBLEM WITH THIS TAB? | VIEW FULL SCREEN | PRINT

Sirius Satellite Radio Inc."