Lessons/Tabs are sorted alphabetically.

Tab Vault

PROBLEM WITH THIS TAB?   VIEW FULL SCREEN   PRINT

Head In The Sand

Seahaven
Head In The Sand by Seahaven




                            Head In The Sand 






Tuning: It's dropped D



INTRO LEAD:
e|-----------------------------|-----------------------------------------|
B|---/7------------------------|---/7------------------------------------|
G|-------9---------------------|--------9--------------------------------|
D|-----------9-~--9/11-11-11---|------------9--/11--9-9-/7---------------|
A|-----------------------------|-----------------------------------------|
D|-----------------------------|-----------------------------------------|

(Over these chords)
e|---------------------------|
B|-3-------------------------|
G|-2---~----9----4-----------|
D|-0---~----7----2-----------|
A|-0---~----7----2-----------|
D|-0---~----7----2-----------|


VERSE: (Just pick around with the notes)
e|------------------------------------------------------------------------|
B|------------------------------------------------------------------------|
G|------------------------------------------------------------------------|
D|-7--7~--7~--7~--7~----7-~---2-~-----------------------------------------|
A|-0--------------------7-~---2-~-----------------------------------------|
D|-0-0---0---0---0------7-~---2-~-----------------------------------------|


CHORUS:
e|-------------------------|--|-----------------------------|--|
B|-------------------------|--|-----------------------------|--|
G|---2--2--2-~--9--9--4--6-|--|---6--9--2-~---9--9--4--6----|--|
D|-x-0--0--0-~--7--7--2--4-|x2|-x-4--7--0-~---7--7--2--4----|x2|
A|-x-0--0--0-~--7--7--2--4-|--|-x-4--7--0-~---7--7--2--4----|--|
D|-x-0--0--0-~--7--7--2--4-|--|-x-4--7--0-~---7--7--2--4----|--|


BRIDGE:
e|--------------------------------------------|
B|--------------------------------------------|
G|-6-6-6-6-6-6-x-4--2-2-2-2-9-9-4-4-----------|
D|-4-4-4-4-4-4-x-2--0-0-0-0-7-7-2-2-----------|
A|-4-4-4-4-4-4-x-2--0-0-0-0-7-7-2-2-----------|
D|-4-4-4-4-4-4-x-2--0-0-0-0-7-7-2-2-----------|










---------
Want More Free Lessons?

Browse through the Archive!

PROBLEM WITH THIS TAB? | VIEW FULL SCREEN | PRINT

AutomotixBuy Event Tickets at TicketCity.com