Lessons/Tabs are sorted alphabetically.

Tab Vault

PROBLEM WITH THIS TAB?   VIEW FULL SCREEN   PRINT

Safe And Sound

Taylor Swift
Safe And Sound by Taylor Swift




                           Safe And Sound





**TRANSPOSING**
If you don't want to use a capo then click the transpose button above 
and transpose UP 5 HALF STEPS.  That would put the chords at Am Em C G 
and such.  I think it sounds good with the capo on 7 too- Transpose
DOWN 2 HALF STEPS for Dm Am F C etc..  



STANDARD TUNING W/
CAPO ON 5

Intro-  
Em Bm G D x2  


Em                         Bm                                        
I remember tears streaming down your face
       G                        D 
When I said, I'll never let you go
     Em                Bm                 G    D
When all those shadows almost killed your light
Em         Bm              G                 D
I remember you said, Don't leave me here a - lone
    Em                  Bm                G     
But all that's dead and gone and passed tonight


G               D
Just close your eyes
    A            G
The sun is going down
            D
You'll be alright
   A                G
No one can hurt you now
             D
Come morning light
A               Bm   A   G
You and I'll be safe and sound


Em Bm G D   x2


Em                  Bm             
Don't you dare look out your window 
G                       D 
Darling everything's on fire
    Em              Bm                G  D
The war outside our door keeps raging on
Em      Bm      G    D
Hold on to this lullabye
Em            Bm      G -once G -once
Even when the music's gone.   Gone.


G               D
Just close your eyes
    A            G
The sun is going down
            D
You'll be alright
   A                G
No one can hurt you now
             D
Come morning light
A               Bm   A   G
You and I'll be safe and sound



G     D     Bm    A  
Oooo  Oooo  Aaah  Aaah...  x2


(Very soft strums/picking this verse)
G               D   A-once
Just close your eyes
G            D    A-once
 You'll be alright
G             D   
 Come morning light
A               Bm   A   G
You and I'll be safe and sound



G      D    A
Ooooo  Oooo Oooo...  x5

G*     D*    A* (*one strum each chord)
Ooooo  Oooo Ohoh.










---------------

version 2










Capo on 5  ( As someone pointed out, the song is accurately played on the 7th 
fret, but for singing purposes it sounds better on the 5th, ...for some :)
Verses: Dm / Am / F/ C
Chorus: F / C / G 

 (play 2x for intro and through verses)
e/-------0h1-1--------------1---------------------------|
B/-------3----------1-------1------------------------1--|
G/-----2------------2-------0h2-2-2-0---0--------0------|
D/---0-----------2--2-------3-----------0h2--2----------|
A/-------------0------------3-----------3------3---3----|
E/--------------------------x---------------------------|

And here are the chords:

Dm                          Am
I remember tears streaming down your face
        F                      C
When I said, I'll never let you go
  Dm                       Am             F      C
When all those shadows almost killed your light
  Dm        Am              F             C
I remember you said, Don't leave me here alone
  Dm                     Am               F      pause
But all that's dead and gone and passed tonight


CHORUS:
F                   C
  Just close your eyes
     G             F
The sun is going down
            C
You'll be alright
    G               F                
No one can hurt you now
               C
Come morning light
G                 Am      F
You and I'll be safe and sound

Riff x2
e|------0h1-1---------------------------------------|
B|------3---------1---1---1--1--1--1-----------1----|
G|--2---2-----2---2---0h2----2--0--0--------0-------|
D|--0-0-------2-0-----3------3--3--0h2--2-----------|
A|--0---------0-------3------3--3--3------3--3------|
E|--------------------------------------------------|

Dm              Am                     F
Don't you dare look out your window darling
                 C
Everything's on fire
Dm                   Am                F     C
The war outside our door keeps raging on
Dm      Am     F     C  
Hold onto this lullaby
Dm            Am        F       F
Even when the music's gone    gone

CHORUS

F         C         Am         Dm
Ooooh    Oooooh     Ahhhhh    Ahhhhhh

F         C         Am         Dm
Ooooh    Oooooh     Ahhhhh    Ahhhhhh

(This last chorus is picked... so you can play it like this or with the chords)
e|-------------------------------------------------|
B|--1---1---1---1-----1---1----3-------------------|
G|--2---2---2---2-----0-----0--0----------0--------|
D|--3--3---3---3---3--2--2-----0--0-----0----------|
A|--3-----------------3-------------0h2------------|
E|-----------------------------3-------------------|
                       OR
e|-------------------------------------------------|
B|--1---1---1---1-----1---1----3-----3-------------|
G|--2---2---2---2-----0-----0--0-----0-------------|
D|--3--3---3---3---3--2--2-----0--0--0--0----------|
A|--3-----------------3--------------2-------------|
E|-----------------------------3-------------------|

F                   C     G
  Just close your eyes
F               C     G
  You'll be alright
F                C   
  Come morning light,
G                Am        F
You and I'll be safe and sound...













---------------

version 3









Standard tuning.
No capo neccesary.

Intro: 
Am Em C G x2

Verse:
Am                         Em    
I remember tears streaming down your face
       C                        G  
When I said, I'll never let you go
Am                     Em                 C           G   
When all those shadows almost killed your light
Am         Em              C             G
I remember you said, Don't leave me here alone
    Am                  Em              C       
But all that's dead and gone and passed tonight
 
Chorus:
C                 G
  Just close your eyes
    D            C
The sun is going down

            G
You'll be alright
   D                C
No one can hurt you now
             G
Come morning light
D               Am  (Am+2nd fret high E string )
You and I'll be safe and 
C                
sound
 
Am Em C G x2

Verse 2:
Am                  Em             
Don't you dare look out your window
C                        G    
Darling, everything's on fire
Am                  Em                C      G  
The war outside our door keeps raging on
Am      Em      C    G     
Hold on to this lullaby
Am            Em      C
Even when the music's gone
C
Gone

Chorus:
C                G
Just close your eyes
    D            C   
The sun is going down
            G
You'll be alright
   D                C
No one can hurt you now
             G
Come morning light
D               Am   (Am+2nd fret high E string)
You and I'll be safe and 
C
sound

C     D
Ooh...ooh...
Em        D
Ah la.....ah la....
C     D
Ooh...ooh...
Em        D
Ah la.....ah la....

End Chorus:
C               G
Just close your eyes
C           G
You'll be alright
C            G
Come morning light
D               Am  (Am+fret 2 high E string)
You and I'll be safe and
C
sound

outro:
C      G  D  C     G  D 
ooh....ooh...ooh...ooh....x3 (fade out)













---------------

version 4








Standard Tuning
Capo on the 7th


Chords:

Dm:   xx0231 
Am:   x02210
F:    133211 or x33211
C:    x32010


Intro:     Dm    Am    F    C     x2


Dm                           Am
 I remember tears streaming down your face
         F                      C
 When I said I'll never let you go
      Dm                Am                  F      C
 When all those shadows almost killed your light
Dm          Am               F              C
 I remember you said, don't leave me here alone
     Dm                   Am                F
 But all that's dead and gone and passed tonight


F                  C
 Just close your eyes
      G             F
 The sun is going down
              C
 You'll be alright
    G                 F
 No one can hurt you now
               C
 Come morning light
  G              Am    G    F
 You and I'll be safe and sound


 Dm    Am    F    C    x2


 Dm                  Am               F
 Don't you dare look out your window darling
                  C
 Everything's on fire
     Dm               Am               F     C
 The war outside our door keeps raging on
 Dm      Am       F    C
 Hold on to this lullaby
 Dm            Am       F
 Even when the music's gone
  F
 Gone


F                  C
 Just close your eyes
      G             F
 The sun is going down
              C
 You'll be alright
    G                 F
 No one can hurt you now
               C
 Come morning light
  G              Am    G    F
 You and I'll be safe and sound


 F     C     Am    G    x2
 

F                  C
 Just close your eyes
      G             F
 The sun is going down
              C
 You'll be alright
    G                 F
 No one can hurt you now
               C
 Come morning light
  G              Am    G    F
 You and I'll be safe and sound
 

 F    C    G    x6
 

 End on Dm














---------------

version 5









Capo 7

INTRO:
E |--------------1h-0----------------------------------|
B |--------------3-----------------------1-------------|
G |--------2-----------2-------------------------------|
D |--0-----------------------------2-----2-------------|
A |--------------------------0-------------------------|
E |----------------------------------------------------|


----------------------------------------------------|
-----------------------------------------------1----|
--0h-2--2-----2-----0--------------0----------------|
--3-----3-----3-----------0h-2--2-----------2-------|
--------------------------3-----------0h-3----------|
----------------------------------------------------|


--------------1h-0----------------------------------|
--------------3-----------------------1-------------|
--2-----2-----------2-------------------------------|
--0-----------------------------2-----2-------------|
--------------------------0-------------------------|
----------------------------------------------------|


----------------------------------------------------|
--------------1-----------1-------------------------|
--2-----2-----------2h-0----------------------------|
--3-----3-------------------------------------------|
--------------------------3-------------------------|
--1-------------------------------------------------|


VERSE:
--1-----------1h-0--------------------0-------------|
--3-----------3-----------------------1-------------|
-----------2-----------2--------2-----------2-------|
--0-----0-----------0-----2-------------------------|
--------------------------0-------------------------|
----------------------------------------------------|


----------------------------------------------------|
-----------------------------------------------1----|
--0h-2--2-----2-----0--------------0--------0-------|
--3-----3-----3-----3-----0h-2--2-------------------|
--------------------------3-----------0h-3----------|
--1-------------------------------------------------|


--------------1h-0----------------------------------|
--------------3-----------------------1-------------|
--0-----2-----------2-----------------2-------------|
--0-----------------------------2-----------2-------|
--------------------------0-------------------------|
----------------------------------------------------|


--------------------------------------0-------------|
--------------1-----------1-----------1-------------|
--2-----2-----------0h-2----------------------------|
--3-----3-----------------------2-------------------|
--------------------------3-----------3-------------|
----------------------------------------------------|


--1-----------1h-0--------------------0-------------|
--3-----------3-----------------------1-------------|
-----------2-----------2--------2-----------2-------|
--0-----0-----------0-----2-------------------------|
--------------------------0-------------------------|
----------------------------------------------------|


----------------------------------------------------|
--------------1--------------------------------1----|
--2-----2-----2-----0h-2-----------0----------------|
--3-----------------------0h-2--2-----------2-------|
--------------------------3-----------0h-3----------|
----------------------------------------------------|


----------------------------------------------------|
--------------0-----------1-----------3-------------|
--------------0--------0----------------------------|
--------0-----------0-----2-----2-----------2-------|
----------------------------------------------------|
--3-------------------------------------------------|


--------------------0-----0-------------------------|
----------------------------------------------------|
--2-----2-----2--------2--2-------------------------|
----------------------------------------------------|
----------------------------------------------------|
----------------------------------------------------|


CHORUS:
--------------------------------------0-------------|
--1-----------1-----------3-----------1-------------|
--------------2--------2--2--------------------0----|
--3-----3-----------3-----------3-----------0-------|
----------------------------------------------------|
----------------------------------------------------|


--3-----------3h-0--------------3h-0----------------|
--1-----------1-----------3-----------3-----1-------|
-----------------------0--------------0-----0-------|
--------2-----------2-------------------------------|
--3-------------------------------------------------|
--------------------------3-------------------------|


--------------------------------------0-------------|
--------------1-----------3-----------1-------------|
--0h-2-----------------2--2--------------------0----|
--3-----3-----3-----3-----------3-----------0-------|
----------------------------------------------------|
----------------------------------------------------|


--3-----------0-----------------0-------------------|
--------------3-----------3--------3--3-----1-------|
-----------------------0--------------------0-------|
--------2-----------2-----------------2-------------|
--3-----------------------3-------------------------|
----------------------------------------------------|


--------------------------------------0-------------|
--1-----------1-----------3-----------1-------------|
--------------2--------2--2--------------------0----|
--3-----3-----------3-----------3-----------0-------|
----------------------------------------------------|
----------------------------------------------------|


--3-----------3h-0--------------0-------------------|
--1-----------1-----------3--------3--3-----1-------|
-----------------------0--------------0-----0-------|
--------2-----------2-------------------------------|
--3-------------------------------------------------|
--------------------------3-------------------------|


--------------0-----------------------0-------------|
--------------1-----------0--------------------0----|
--------2-----------2-----------0-------------------|
--2-----------------------------------------2-------|
--0-------------------------------------------------|
--------------------------3-------------------------|


--------------------0-------------------------------|
--------0-----1-----------1-------------------------|
--2-----------2--------2----------------------------|
--2-----------------------2-------------------------|
----------------------------------------------------|
----------------------------------------------------|


VERSE 2:
--0h-1--------1h-0--------------------0-------------|
--3-----------3-----------0h-1--------1-------------|
-----------2-----------2--2-------------------------|
--0-----0-----------0-----------2-----------2-------|
--------------------------0-------------------------|
----------------------------------------------------|


----------------------------------------------------|
-----------------------------------------------1----|
--0h-2--2-----2-----0--------------0--------0-------|
--3-----3-----3-----------0h-2--2-------------------|
--------------------------3-----------0h-3----------|
----------------------------------------------------|


--------------1h-0--------------------0-------------|
--------------3-----------0h-1--------1-------------|
--------2-----------2-----2-------------------------|
--0-----------------------------2-------------------|
--------------------------0-------------------------|
----------------------------------------------------|


--------------0-----------------------0-------------|
--1-----------1-----------1-----------1-------------|
--2-----------------------0-------------------------|
--3-----3-----------3-----------2-----------0-------|
-----------------------0--3-------------------------|
----------------------------------------------------|


--0-----1-----------0-------|
--3-----3-----1-----1-------|
--------------2-------------|
--0--0-----0-----2-----2----|
--------------0-------------|
----------------------------|


----------------------------------------------------|
-----------------------------------------------1----|
--0h-2--2-----2-----0--------------0--------0-------|
--3-----3-----3-----------0h-2--2-------------------|
--------------------------3-----------0h-3----------|
----------------------------------------------------|


--------------1h-0--------------------0-------------|
--3-----------3-----------1-----------1-------------|
-----------2-----------2--2-------------------------|
--0-----0-----------0-----------2-----------2-------|
--------------------------0-------------------------|
----------------------------------------------------|


--------------------------------------0-------------|
--------------1-----------1-----------1-------------|
--2-----2-----------0h-2----------------------------|
--3-----3-----------------------2-------------------|
--------------------------3-----------3-------------|
----------------------------------------------------|


--0h-1--------1h-0--------------------0-------------|
--3-----------3-----------0h-1--------1-------------|
-----------2-----------2--2-------------------------|
--0-----0-----------0-----------2-----------2-------|
--------------------------0-------------------------|
----------------------------------------------------|


----------------------------------------------------|
--------------------------------------1-------------|
--0h-2--2-----2-----0-----0-----------0-------------|
--3-----3-----3-----------------2-----------2-------|
--------------------------3-------------------------|
----------------------------------------------------|


--1-----------3-------------|-------|
--3-----3-----------3-------|-------|
--------2-------------------|-------|
--0--0--------0-------------|--3----|
----------------------------|-------|
----------------------------|-------|


--------------------0-------------------------------|
--------------1-------------------------------------|
--------2-------------------------------------------|
--3--------------------3L-3-------------------------|
----------------------------------------------------|
----------------------------------------------------|

The second chorus is just strumming these chords:

F F C G

I recommend playing it like this:
E |--------------------0--0----|--3--3--3--3--3--3--3--3----||
B |--1--1--1--1--3--3--3--3----|--1--1--1--1--0--0--0--0----||
G |--2--2--2--2--2--2--2--2----|--0--0--0--0--0--0--0--0----||
D |--3--3--3--3--3--3--3--3----|--2--2--2--2--0--0--0--0----||
A |----------------------------|--3--3--3--3--2--2--2--2----||
E |----------------------------|--------------3--3--3--3----||

Play it 3 times, and end with

Am         Em/G (3x2000)    F
(Safe......and.............sound)

Then, for the "oooooh" part:
F   G   Am   G
You can play these as power chords if you'd like.

Afterwards:
E |--3-----------3-----------------------3-------------|
B |--1-----------1-----------3-------------------------|
G |--------------2--------2--2--------------------0----|
D |--3-----3-----------3-----------3-----------0-------|
A |----------------------------------------------------|
E |----------------------------------------------------|


--3-----3-------------------|
--------1-----3-------------|
--------------0-------------|
-----2-----2----------------|
--3-----------2-------------|
----------------------------|


--3-----------3-----------------------3-------------|
--1-----------1-----------3-------------------------|
--------------2--------2--2--------------------0----|
--3-----3-----------3-----------3-----------0-------|
----------------------------------------------------|
----------------------------------------------------|


--3-----------3h-0----------------------------------||
--------------1-----------3-------------------------||
-----------------------0--0-------------------------||
--------2-----------2-------------------------------||
--3-----------------------2-------------------------||
----------------------------------------------------||


Like the chorus:

F F C G
Am Em/G F

The final set of "ooohhs"

F F C G x 5

End with single strums on F,C, and G.













---------------

version 6








Capo 7th Fret


Chord Chart at the bottom of the page

Right hand fingering shown under tabs
T=Thumb F=First finger/Index M=Middle finger R=Ring finger


Order of the song:


Intro - Verse - Pre Chorus - Chorus- Intro - Verse - Pre Chorus-Chorus(2nd)- Bridge -
Chours (3rd)- Outro


Right Hand Resting Position


My basic right hand resting position is with the thumb on the D string my first finger
on the G string my middle finger on the B string and my ring finger on the high E string
and in most cases those fingers play the strings that they rest on. The thumb also plays 
the A string and Low E string. There will be many cases where a finger will play a note
it normally does not rest on so this is just a rule of thumb! (Ha! No pun intended)

Intro

Part 1
    Dmin          Amin     Fmaj          Cmaj       C/B

E|--------1p0--------------------------------------------------|
B|--------3-------------1-----------------------------------1--|
G|-----2----------------2--0h2--2--2--0----------0-------0-----|
D|--0----------0-----2-----3-------3-----0h2--2----------------|
A|----------------0----------------------3----------0h2--------|
E|-------------------------------------------------------------|
    T  F  R    T  T  T  M  F    F  F  F  F    F  M  T    F  M
          M             F  T       T     T

Part - 2
    Dmin          Amin     Fmaj           Cmaj
E|--------1p0--------------------------------|
B|--------3-------------1--------1--------1--|
G|-----2----------------2--2-----------0-----|
D|--0----------0-----2-----3--3-----3--------|
A|----------------0-----------------------3--|
E|-------------------------------------------|
    T  F  R    T  T  T  M  F  T  M  T  F  M
          M             F  T              T

VERSE

PART 1

    Dmin                  Amin          Fmaj          Cmaj        C/B
E|--0h1--------1p0----------------0-----------------------------------------|
B|--3----------3----------0h1-----1--------------------------------------1--|
G|----------2----------0----------------0h2--2--2--0----------0-------0-----|
D|-------0----------0----------2-----2--3-------3-----0h2--2----------------|
A|------------------------0---------------------------3----------0h2--------|
E|--------------------------------------------------------------------------|
    R    T  F  R    T  F  M    T  R  T  F    F  F  F  F    F  M  T    F  M
    M          M          T       M     T       T     T

PART 2
    Dmin          Amin     Fmaj           Cmaj

E|--------1p0-----------------------------------0--|
B|--------3-------------1--------1--------1-----1--|
G|-----2----------------2--2-----------0-----------|
D|--0----------0-----2-----3--3-----3--------2-----|
A|----------------0-----------------------3--------|
E|-------------------------------------------------|
    T  F  R    T  T  T  M  F  T  M  T  F  M  T  R
          M             F  T                    M


* The order of parts for the verse is Part1 - Part2 - Part 1 then it goes to the Pre-Chorus

PRE-CHORUS
    Gmaj                       Fmaj
E|--------------------------------------0-----|
B|--------0--------1-----3--------1--3--------|
G|-----0--0-----0--------------2-----------2--|
D|-----------0-----2--2-----2-----------------|
A|--------------------------------------------|
E|--3-----------------------------------------|
    T  F  M  T  F  M  T  M  T  F  M  M  R  F
          F        T

CHORUS
    Fmaj                          Cmaj          Gmaj
E|-----------------------0--------------3p0--------0--------|
B|--1-----1--------3--------------1----------1--3-----3--1--|
G|--2-----2-----2--------------0----------------------------|
D|-----3-----3--------3-----0--------2----------------------|
A|--------------------------------3-------------------------|
E|----------------------------------------------3-----------|
    M  T  M  T  F  M  T  R  T  F  M  T  R    M  M  R  M  M
    F     F                       T             T


    Fmaj                            Cmaj          Gmaj
E|-------------------------0--------------3p0--------0--------|
B|----------1--------3--------------1----------1--3-----3--1--|
G|--0h2-----2-----2--------------0----------------------------|
D|--3----3-----3--------3-----0--------2----------------------|
A|----------------------------------3-------------------------|
E|------------------------------------------------3-----------|
    F    T  M  T  F  M  T  R  T  F  M  T  R    M  M  R  M  M
    T       F                       T             T


    Fmaj                            Cmaj          Gmaj
E|-------------------------0--------------3p0--------0--------|
B|----------1--------3--------------1----------1--3-----3--1--|
G|--0h2-----2-----2--------------0----------------------------|
D|--3----3-----3--------3-----0--------2----------------------|
A|----------------------------------3-------------2-----------|
E|------------------------------------------------------------|
    F    T  M  T  F  M  T  R  T  F  M  T  R    M  M  R  M  M
    T       F                       T             T

    Amin7       Amin7/G      D/F#
E|--------0-----------0--------------0-----|
B|-----------1-----------1-----1--3--------|
G|--------------------------2-----------2--|
D|-----2-----------2-----------------------|
A|--0--------------------------------------|
E|--------------3--------------------------|
    T  T  R  M  T  T  R  M  F  M  M  R  F


Chours (2nd time)

Fmaj 8x | Cmaj 4x | Gmaj 4x |Repeat 3x

Amin 4x |Gmaj 4x | D/F# 8x


Bridge (oooh oooh ooooh part)

Fmaj 8x| Gmaj 8x| Amin 8x| Gmaj 8x| Repeat 2x


Chorus (3rd time)
    Fmaj                          Cmaj             Gmaj
E|-----------------------0--------------3p0-----------|
B|--1-----1--------3--------------1----------------3--|
G|--2-----2-----2--------------0----------------0-----|
D|-----3-----3--------3-----0--------2-------2--------| Repeat 2x
A|--------------------------------3-------------------|
E|-------------------------------------------------3--|
    M  T  M  T  F  M  T  R  T  F  M  T  R    T  F  M
    F     F                       T                T

Fmaj 8x| Cmaj 4x| Gmaj 4x

Amin 4x |Gmaj 4x | D/F# 8x

Outro

Fmaj 8x| Cmaj 4x| Gmaj 4x| Repeat as many times as needed

Lyrics:

I remember tears streaming down your face
When I said, "I'll never let you go"
When all those shadows almost killed your light
I remember you said, "Don't leave me here alone"
But all that's dead and gone and passed tonight

Just close your eyes
The sun is going down
You'll be alright
No one can hurt you now
Come morning light
You and I'll be safe and sound

Don't you dare look out your window darling
Everything's on fire
The war outside our door keeps raging on
Hold onto this lullaby
Even when the music's gone
Gone

Just close your eyes
The sun is going down
You'll be alright
No one can hurt you now
Come morning light
You and I'll be safe and sound

Oooh, Oooh, Oooh, Oooh
La La (La La)
La La (La La)
Oooh, Oooh, Oooh, Oooh
La La (La La)

Just close your eyes
You'll be alright
Come morning light,
You and I'll be safe and sound...

Oooh, oooh, oooh, oooh oh oh. [x7]














---------------

version 7








Capo 3

Intro/Verse Part 1
E) |--------5p4----------------------------------------------------------|
B) |--------7-------------5--0h2-----2--0----------0----------5----------|
G) |-----6-------6--------6--2-------2--2------------------4-------------|
D) |--4----------------6-----2-------2--2--4h6---------------------------|
A) |----------------4--------0----0--------------------4h6---------------|
E) |---------------------------------------0----0------------------------|

Intro/Verse Part 2
E) |--------5p4-----------------0--0-------------------------------------|
B) |--------7-------------5--2-------------------------------------------|
G) |-----6-------6--------6--2-------------------------------------------|
D) |--4----------------6-----2-------------------------------------------|
A) |----------------4--------0-------------------------------------------|
E) |-------------------------------0-------------------------------------|

Pre-Chorus
E) |-----------------2--------2--4---------------------------------------|
B) |-----4-----5--------2--5--------2------------------------------------|
G) |-----4-----4---------------------------------------------------------|
D) |---------------------------------------------------------------------|
A) |--2-----2-----2-----0------------------------------------------------|
E) |---------------------------------------------------------------------|

Chorus Part 1                                     <1. <2.
E) |------0-----2-----4-----7--------7p4-----------|-----4---------------|
B) |---2--2-----2-----5-----5--------5-------------|--7-----7--5---------|
G) |•--2-----2-----2-----4--------4---------------•|--------------------•|
D) |•--------------------------6----------6-------•|--------------------•|
A) |---0-------------------------------------------|---------------------|
E) |------------------------0----------------------|--7------------------|

Chorus Part 2
   <3.
E) |-----4-----------2-----0--2--4---------------------------------------|
B) |--7-----7--5--5--4--2-----------2------------------------------------|
G) |--------------6--4---------------------------------------------------|
D) |--------------6------------------------------------------------------|
A) |--6-----------4--2--1------------------------------------------------|
E) |---------------------------------------------------------------------|

2nd Chorus Part 1 (Strumming)
E) |---------------------0---------0-------------------------------------|
B) |--2------------------0---------0-------------------------------------|
G) |--2------------------1---------4------x2-----------------------------|
D) |--2------------------2---------4-------------------------------------|
A) |--0------------------2---------2-------------------------------------|
E) |---------------------0-----------------------------------------------|

2nd Chorus Part 2 (Strumming)
E) |---------------------0---------0---------0---------0-----------------|
B) |--2------------------0---------0---------0---------0---------2-------|
G) |--2------------------1---------4---------6---------4---------1-------|
D) |--2------------------2---------4---------6---------4---------2-------|
A) |--0------------------2---------6---------4---------2---------1-------|
E) |---------------------0-----------------------------------------------|

Bridge (Strumming)
E) |---------------------0------------------0------------------0---------|
B) |--0------------------0------------------0------------------0---------|
G) |--2------------------4------------------6------------------4--repeat-|
D) |--2------------------4------------------6------------------4---------|
A) |--0------------------2------------------4------------------2---------|
E) |---------------------------------------------------------------------|









 





---------------

version 8









Chords Used:

Dm  000231
Am  002210
F   133211
C   032010


Standard tuning. Capo on 7th fret.

Intro:
                
E||----------1p0-----------------------|----------------------------------|
B||----------3---------------1---------|--------------------------------1-|
G||------2-------------------2---------|--0h2-----2---0--------0------0---|
D||--0-----------0-------2-------------|--3-------3---3---0h2-2-----------| 
A||------------------0----------(0)----|--3--(3)----------3-------0h2-----| 
E||------------------------------------|----------------------------------|  


E||----------1p0-----------------------|----------------------------------|
B||----------3---------------1---------|----------1-------1---------------|
G||------2-------------------2---------|--2---------------0---------------|
D||--0-----------0-------2-------------|--3---------------2---------------| 
A||------------------0----------(0)----|--3--(3)-----(3)--3---------------| 
E||------------------------------------|----------------------------------| 













-----------
Want More Free Lessons?

Browse through the Archive!

PROBLEM WITH THIS TAB? | VIEW FULL SCREEN | PRINT

ProAudioStar.com Lowest Prices, Live Chat, Great Service300x250 Banner for $10 Trial