Lessons/Tabs are sorted alphabetically.

Tab Vault

PROBLEM WITH THIS TAB?   VIEW FULL SCREEN   PRINT

Caffeinated Consciousness

Tv On The Radio
Caffeinated Consciousness by Tv On The Radio





         Caffeinated Consciousness







Tuning: Standard

Chords:

     G    Dm    F      C   Am    
e|---3----1-----1------0----0----|
B|---3----3-----1------1----1----|
G|---4----2-----2------0----2----|
D|---5----0-----3------2----2----|
A|---5-----------------3----0----|
E|---3---------------------------|

Strumming pattern for verse: D-U-D

Verse:

G
Now drop yourself 
G
With no concern
G
On how to breathe
G
When your mind is burned
G
On optimistic
G
On overload
G
Can we shift the heat back
G
To when your heart's grown cold

G
In severed light
G
Our souls are damaged
G
And with that caged
G
To the cause of light
G
Now I can see
G
Another language
G
Gone optimistic
G
We're gonna survive

Chorus:

Dm                         F
We're the tail-end of the sun
C                  Am
To a greener hideaway
Dm                         F
Where in peace I found my fun
C                        Am
Till I heard the future say

Verse:
G
I'm in an army
G
A megaquake
G
A force of nature
G
All hell ashake
G
Improve our days now
G
Cause we might not sleep tonight
G
Suffused are we 
G
To the cause of light!
G
On optimistic
G
On overload

G
Can we shift the heat back
G
To when your heart's grown cold
G
And now we know why
G
And know what we must do
G
Aware of the cracks
G
The heart shines through

Chorus:

Dm                         F
We're the tail-end of the sun
C                  Am
To a greener hideaway
Dm                         F
Where in peace I found my fun
C                        Am
Till I heard the future say


Dm                         F
We're the tail-end of the sun
C                  Am
To a greener hideaway
Dm                         F
Where in peace I found my fun
C                        Am
Till I heard the future say



G
A bed of roses
G
And rollercoasters
G
A bed of roses
G
And rollercoasters
G
A bed of roses
G
And rollercoasters









---------------

version 2









Intro:
e|-----------------5---55------------5---55----------------------------------|
B|-----------------7---77------------7---77----------------------------------|
G|-----------------7---77------------7---77----------------------------------|
D|-----------------7---77------------7---77----------------------------------|
A|-----------------5---55------------5---55----------------------------------|
E|------5h7--9-----5---55----5h7--2--5---55----------------------------------|

  verse
e|-----3-3----55-----3-3----55-------------------------------------------------|
B|-----3-3----55-----3-3----55-------------------------------------------------|
G|-----4-4----66-----4-4----44-------------------------------------------------|
D|-----5-5----77-----5-5----77---------over and over again---------------------|
A|-----5-5----77-----5-5----77-------------------------------------------------|
E|-----3-3----55-----3-3----55-------------------------------------------------|

chorus x2
e|---------------------------------------------------------------------------|
B|---------------------------------------------------------------------------|
G|----5-3-0------------------------------------------------------------------|
D|-----------3-1-3-5---------------------------------------------------------|
A|---------------------------------------------------------------------------|
E|---------------------------3-3-3-3--1-1s3----------------------------------|











------------
Want More Free Lessons?

Browse through the Archive!

PROBLEM WITH THIS TAB? | VIEW FULL SCREEN | PRINT

AllurezKnoxville, Start Saving up to 70% at Half Off Depot. Start Saving Now!